Pogues - The Band Played Waltzing Matilda Chords & Tabs

 

The Band Played Waltzing Matilda Chords & Tabs

Pogues Chords & Tabs

Version: 1 Type: Tab 1 rating
1 star 2 stars 3 stars 4 stars 5 stars
comments

The Band Played Waltzing Matilda Tab

   
A chord pattern
[----------0--------0--------0-----]
[---------------2--------2----------]
[------------------------------------]
[------------------------------------]
[-----0------------------------------]
[------------------------------------]   

D chord pattern
[----------2--------2--------2------]
[---------------3--------3-----------]
[-------------------------------------]
[-----0------------------------------]
[-------------------------------------]
[-------------------------------------]
[ Tab from: http://www.guitartabs.cc/tabs/p/pogues/the_band_played_waltzing_matilda_tab.html ]
E chord pattern
[----------0--------0--------0-------]
[---------------0--------0-----------]
[-------------------------------------]
[-------------------------------------]
[-------------------------------------]
[-----0-------------------------------]

Song
Intro-A x4
Verse 1-    A                   D                     A                     A
                 When I was a young man I carried my pack
                            A                   E            A       A
                  And I lived the free life of a rover    
        Etc etc you can work out the rest of the chords really easily, they’re all either A, D and E. Remember to keep the same finger picking pattern all the way through and try and keep in time with the record
Comments