Pogues - Sick Bed Of Cuchulainn Chords & Tabs

 

Sick Bed Of Cuchulainn Chords & Tabs

Pogues Chords & Tabs

Version: 1 Type: Chords 0 ratings
1 star 2 stars 3 stars 4 stars 5 stars
comments

Sick Bed Of Cuchulainn Chords

   
***The Sick Bed Of Cuchulainn - by Shane MacGowan
from the album 'Rum Sodomy & The Lash'

The Sick Bed Of Cuchulainn - as perfomed by The Pogues

Intro:

     C         Dm      C         Dm     C         Dm      F      C
e|---8-8-10-12-10-8----8-8-10-12-10-----8-8-10-12-10-8----8-8-10-8-|
B|-8----------------10----------------8-----------------10---------|
G|-----------------------------------------------------------------|
D|-----------------------------------------------------------------|
A|-----------------------------------------------------------------|
E|-----------------------------------------------------------------|



[ Tab from: http://www.guitartabs.cc/tabs/p/pogues/sick_bed_of_cuchulainn_crd.html ]
   F                  Bb           C  
e|----------------------------------------|
B|------------------------5-6--5----------|
G|---------------5----5-7--------7-5------|
D|-7-7-7-5-7-5-7---3------------------5-5-|
A|----------------------------------------|
E|----------------------------------------|


   F                  Bb    C      F
e|----------------------------------------|
B|------------------------5-6--5----------|
G|---------------5----5-7--------7-5------|
D|-7-7-7-5-7-5-7---3------------------5-5-|
A|----------------------------------------|
E|----------------------------------------|

        C  
e|----------------------------------------|
B|------------------------5-6--5----------|
G|---------------5----5-7--------7-5------|
D|-7-7-7-5-7-5-7---3------------------5-5-|
A|----------------------------------------|
E|----------------------------------------|


   F                  Bb    C      F
e|----------------------------------------|
B|------------------------5-6--5----------|
G|---------------5----5-7--------7-5------|
D|-7-7-7-5-7-5-7---3------------------5-5-|
A|----------------------------------------|
E|----------------------------------------|
Comments