Pogues - New Rose Chords & Tabs

 

New Rose Chords & Tabs

Pogues Chords & Tabs

Version: 1 Type: Tab 0 ratings
1 star 2 stars 3 stars 4 stars 5 stars
comments

New Rose Tab

   
***NEW ROSE - by The Popes
from their solo album "Holloway Boulevard"

New Rose - as performed by The Popes

  intro  (mandolin)
e|--------------------------------------------------------------------|
B|-------3-3-3----3-3-3--------1-1-1-----------1 11-------------------|                x2
G|----0----------0------------0--------------0------------------------|
D|--------------------------------------------------------------------|
A|--------------------------------------------------------------------|
E|--------------------------------------------------------------------|

    chorus (accordion and whistle)
e|--3-3-3-3--------------------------------------|
B|---------------3--0-1-1-1-1-0------------------|
G|--------------------------------------2--------|
D|-----------------------------------------------|
A|-----------------------------------------------|
E|-----------------------------------------------|
  G                C
x4

[ Tab from: http://www.guitartabs.cc/tabs/p/pogues/new_rose_tab.html ]
[G]Everything was broken, the[C] world worn out and old[G]                 [C]
[G]My days were too long, my[C] nights lonely and cold[G]	          [C]
[C]From the cry of a child
To the [G]winds in the wild
[C]Nothing was right, [G]nobody smiled
Now[D] you come along, plant a new rose in my heart[G]
[C]Plant a new rose in my [G]heart
[C]Plant a new rose in my[G] heart
[C]Plant a new rose
[G]              [C]            [G]              [C]

Everyone was waiting, the story's to be told
No matter what I did, nothing would turn into gold
The light was unsteady, the plow was too heavy
My time had come and I wasn't ready
Now you come along, plant a new rose in my heart
Plant a new rose in my heart
Plant a new rose in my heart
Plant a new rose

BREAk:     JUST SWITCH OF   WITH   G   AND   C

Plant a new rose in my heart
Plant a new rose in my heart

From the cry of a child, to the winds in the wild
Nothing was right, nobody smiled
Now you come along, plant a new rose in my heart
Plant a new rose in my heart
Plant a new rose in my heart
Plant a new rose
Plant a new rose
Plant a new rose
Plant a new rose in my heart
Plant a new rose in my heart
Plant a new rose in my heart
Plant a new rose
Comments