Pogues - New Rose Intro Chords & Tabs

 

New Rose Intro Chords & Tabs

Pogues Chords & Tabs

Version: 1 Type: Chords 0 ratings
1 star 2 stars 3 stars 4 stars 5 stars
comments

New Rose Intro Chords

   
***NEW ROSE - by The Popes
from their solo album 'Holloway Boulevard'

New Rose - as performed by The Popes
[ Tab from: http://www.guitartabs.cc/tabs/p/pogues/new_rose_intro_crd.html ]
  intro  (mandolin)       
e|-----------------------------------------------------------|
B|-------3-3-3----3-3-3--------1-1-1-----------1 11 |                x2
G|----0----------0------------0--------------0----------|
D|-----------------------------------------------------------|
A|--------------------------------------------------------------|
E|----------------------------------------------------------------|

    chorus (accordion and whistle)
e|--3-3-3-3----------------------|
B|---------------3--0-1-1-1-1-0-------|
G|--------------------------------------2------|
D|-------------------------------|
A|-------------------------------|
E|-------------------------------|
  G                C                   
x4


Comments