Pogues - Fairytale Of New York Intro Chords & Tabs

 

Fairytale Of New York Intro Chords & Tabs

Pogues Chords & Tabs

Version: 1 Type: Tab 0 ratings
1 star 2 stars 3 stars 4 stars 5 stars
comments

Fairytale Of New York Intro Tab

   
#----------------------------------PLEASE NOTE---------------------------------#
#This file is the author's own work and represents their interpretation of the #
#song. You may only use this file for private study, scholarship, or research. #
#------------------------------------------------------------------------------#

The Pogues -  Fairytale Of New York    S.McGowen J Finer

Intro arranged for 2 guitars 12/6 string by eva.hans@swipnet.se (Hans Lekedal)


Guitar 1
/slide up
Chords over intro
[ Tab from: http://www.guitartabs.cc/tabs/p/pogues/fairytale_of_new_york_intro_tab.html ]
 D G/D      D   G/D  A    D
e5--7---9-10-5---3-2-0-------|
h7/-8--------7---3-3-2--3-3--|
g------7-------7----------2--|
d---0--------0---0--------0--|
A--------------------0-------|
E----------------------------|  G/A...

Guitar 2
 D G/D      D   G/D  A    D
e2-3----3---2----3---0----2--|
h3-3--3-----3----3---2----3--|
g2---4--------2----4------2--|
d0-0--------0----0--------0--|
A--------------------0-------|
E----------------------------|  G/A...

Tab for The hole song should be finished any year now...

*******************************************************************************


Comments