Poets Of The Fall - Lift Chords & Tabs

 

Lift Chords & Tabs

Poets Of The Fall Chords & Tabs

Version: 1 Type: Tab 0 ratings
1 star 2 stars 3 stars 4 stars 5 stars
comments

Lift Tab

   
Intro
Gtr I
  Q  E Q  E Q    E Q  E Q  Q    Q  E Q  E Q    E Q  E Q  Q
|--------------|--------------|--------------|--------------|
|-----------7--|-7-9--9-------|-----------7--|-7-9--9-------|
|-6--6-4--4----|--------8--8--|-6--6-4--4----|--------8--8--|
|--------------|--------------|--------------|--------------|
|--------------|--------------|--------------|--------------|
|--------------|--------------|--------------|--------------|


  E E E Q  E Q    E Q  E Q  Q    E E E Q  E Q    E Q  E  Q   E E
|---------------|--------------|---------------|-----------------|
|------------7--|-7-9--9-------|------------7--|-7------12--12-9-|
|-6-8-6-4--4----|--------8--8--|-9-8-9-8--8----|---8--8----------|
|---------------|--------------|---------------|-----------------|
|---------------|--------------|---------------|-----------------|
|---------------|--------------|---------------|-----------------|


  Q  E Q  E Q    E Q  E Q  Q    Q  E Q  E Q    E Q  E Q  Q
|--------------|--------------|--------------|--------------|
|-----------7--|-7-9--9-------|-----------7--|-7-9--9-------|
|-6--6-4--4----|--------8--8--|-6--6-4--4----|--------8--8--|
|--------------|--------------|--------------|--------------|
|--------------|--------------|--------------|--------------|
|--------------|--------------|--------------|--------------|


  E E E Q  E Q    E Q  E Q  Q    E E E Q  E Q    E H Q.
|---------------|--------------|---------------|-----------|
|------------7--|-7-9--9-------|------------7--|-7---------|
|-6-8-6-4--4----|--------8--8--|-9-8-9-8--8----|---8-------|
|---------------|--------------|---------------|-----------|
|---------------|--------------|---------------|-----------|
|---------------|--------------|---------------|-----------|


 Verse 

  E E E E E E E E   E E E E E E Q    E E E E E E E E   E E E E E E Q
|-----6-----6-----|-6-----6-----6--|-----2-----2-----|-2-----2-----2--|
|---4-----4-----4-|-----4-----4----|---0-----0-----0-|-----0-----0----|
|-----------------|----------------|-----------------|----------------|
|-6-----6-----6---|---6-----6------|-----------------|----------------|
|-----------------|----------------|-----------------|----------------|
|-----------------|----------------|-0-----0-----0---|---0-----0------|


  E E E E E E E E   E E E E E E Q    E E E E E E E E   E E E E E E Q
|-----6-----6-----|-6-----6-----6--|-----2-----2-----|-2-----2-----2--|
|---4-----4-----4-|-----4-----4----|---0-----0-----0-|-----0-----0----|
|-----------------|----------------|-----------------|----------------|
|-6-----6-----6---|---6-----6------|-----------------|----------------|
|-----------------|----------------|-----------------|----------------|
|-----------------|----------------|-0-----0-----0---|---0-----0------|


  E E E E E E E E   E E E E E E Q    E E E E E E E E   E E E E E E Q
|-----6-----6-----|-6-----6-----6--|-----2-----2-----|-2-----2-----2--|
|---4-----4-----4-|-----4-----4----|---0-----0-----0-|-----0-----0----|
|-----------------|----------------|-----------------|----------------|
|-6-----6-----6---|---6-----6------|-----------------|----------------|
|-----------------|----------------|-----------------|----------------|
|-----------------|----------------|-0-----0-----0---|---0-----0------|

[ Tab from: http://www.guitartabs.cc/tabs/p/poets_of_the_fall/lift_tab.html ]
  E E E E E E E E   E E E E E E Q    E E E E E E E E   E E E E E E Q
|-----6-----6-----|-6-----6-----6--|-----2-----2-----|-2-----2-----2--|
|---4-----4-----4-|-----4-----4----|---0-----0-----0-|-----0-----0----|
|-----------------|----------------|-----------------|----------------|
|-6-----6-----6---|---6-----6------|-----------------|----------------|
|-----------------|----------------|-----------------|----------------|
|-----------------|----------------|-0-----0-----0---|---0-----0------|


 Pre-chorus, same chords like verse 
 Guitar two starts to play just chords (listen to the song for timing) 

  E E E E E E E E   E E E E E E Q    E E E E E E E E   E E E Q  E E E
|-----6-----7-----|-6-----4--------|-----2-----4-----|-2-----0----------|
|---4-----4-----4-|-----4-----4-7--|---0-----0-----0-|-----0------4-5---|
|-----------------|----------------|-----------------|------------------|
|-6-----6-----6---|---6-----6------|-----------------|------------------|
|-----------------|----------------|-----------------|------------------|
|-----------------|----------------|-0-----0-----0---|---0------0-------|


  E E E E E E E E   E E E E E E Q    E E E E E E E E   E E E Q  E E E
|-----6-----7-----|-6-----4--------|-----2-----4-----|-2-----0----------|
|---4-----4-----4-|-----4-----4-7--|---0-----0-----0-|-----0------4-5---|
|-----------------|----------------|-----------------|------------------|
|-6-----6-----6---|---6-----6------|-----------------|------------------|
|-----------------|----------------|-----------------|------------------|
|-----------------|----------------|-0-----0-----0---|---0------0-------|


  E E E E E E E E   E E E E E E Q    E E E E E E E E   E E E Q  E E E
|-----6-----7-----|-6-----4--------|-----2-----4-----|-2-----0----------|
|---4-----4-----4-|-----4-----4-7--|---0-----0-----0-|-----0------4-5---|
|-----------------|----------------|-----------------|------------------|
|-6-----6-----6---|---6-----6------|-----------------|------------------|
|-----------------|----------------|-----------------|------------------|
|-----------------|----------------|-0-----0-----0---|---0------0-------|


  E E E E E E E E   E E E E E E Q    E E E E E E E E   W
|-----6-----7-----|-6-----4--------|-----2-----4-----|-2----|
|---4-----4-----4-|-----4-----4-7--|---0-----0-----0-|------|
|-----------------|----------------|-----------------|------|
|-6-----6-----6---|---6-----6------|-----------------|------|
|-----------------|----------------|-----------------|------|
|-----------------|----------------|-0-----0-----0---|------|


 Chords for the song 

Pre-Chorus:
     G#m
And it feels like fear
            E
Like I'll dissapear
             G#m
Gets so hard to steer
              E
Yet I go on
            G#m
Do we need debate
             E
When it seems too late
           G#m
Like I bleed but wait
                        E            
Like nothing's wrong

 Chorus 
C#m                          B               F#
You lift my spirit, take me higher, make me fly
          C#m                               E         F#
Touch the moon up in the sky, when you are mine
C#m                          B               F#
You lift my higher, take my spirit, make it fly
C#m                          E               F#
Where only wonders will appear
Comments