Poets Of The Fall - Late Goodbye Chords & Tabs

 

Late Goodbye Chords & Tabs

Poets Of The Fall Chords & Tabs

Version: 2 Type: Tab 0 ratings
1 star 2 stars 3 stars 4 stars 5 stars
comments

Late Goodbye Tab

Poets of the Fall - Late Goodbye

I took it from a weird writen tabs in the band's site.

Intro

e|-------7-----------5-|-------5-----------3---|------7-----------5-|-------5-----------3-||
B|-----0---0-------0---|-----0---0-------0-----|----0---0-------0---|-----0---0-------0---||
G|---7-------7---6-----|---5-------5---4------4/7--------7---6------|---5-------5---4-----||
D|---------------------|-----------------------|--------------------|---------------------||
A|---------------------|-----------------------|--------------------|---------------------||
E|-0-----------0-------|-0-----------0---------|--0---------0-------|-0-----------0-------||


Verse (play twice the first 2 lines)

e|-------0-----------0-----|-------0-----------0-----|
B|-----5---5-------7---7---|-----8---8-------7---7---|
G|---0-------0---0-------0-|---0-------0---0-------0-|
D|-------------------------|-------------------------|
A|-------------------------|-------------------------|
E|-0-----------0-----------|-0-----------0-----------|

e|-------5-------5-------5-------5-|-------5-------5-------5------5--|
B|-----5---5---5---5---5---5---5---|-----7---7---7---7---7---7---7---|
G|---5-------5-------5-------5-----|---5-------5-------5-------5-----|
D|---------------------------------|---------------------------------|
A|-7-------------------------------|-7-------------------------------|
E|---------------------------------|---------------------------------|

e|-------0-------|-0--------|-------0-----------0-----|-------0-----------0-----||
B|-------0-------|-0--------|-----5---5-------7---7---|-----8---8-------7---7---||
G|-------7-------|-5--------|---0-------0---0-------0-|---0-------0---0-------0-||
D|----7----------|-5--------|-------------------------|-------------------------||
A|---------------|-0--------|-------------------------|-------------------------||
E|-7-------------|----------|-0-----------0-----------|-0-----------0-----------||


Chorus

Guitar 1 plays this twice
[ Tab from: http://www.guitartabs.cc/tabs/p/poets_of_the_fall/late_goodbye_tab_ver_2.html ]
e|-0---0---|-0---0---|-0---0---|-0-----||
B|-0---0---|-0---0---|-0---7---|-3-----||
G|-7---6---|-5---4---|-5---7---|-0-----||
D|-7---7---|-5---5---|-5---0---|-2-----||
A|-----0---|-0-------|-0-------|-2-----||
E|-7-------|-----3---|---------|-0-----||

Guitar 2 plays this only once (everything is faster than the 

first guitar)

e|-------7------------5---------|-------5------------3---------|
B|-----0---0--------0---0-------|-----0---0--------0---0-------|
G|---7-------7----6-------6-----|---5-------5----4-------4-----|
D|------------------------------|------------------------------|
A|------------------------------|------------------------------|
E|------------------------------|------------------------------|

e|-------5------------2---------|-------3--------5----7----12--|
B|-----0---0--------0---0-------|-----0---0------0----0-----0--|
G|---5-------5----2-------2-----|---4-------4----5----7----12--|
D|------------------------------|------------------------------|
A|------------------------------|------------------------------|
E|------------------------------|------------------------------|

e|-------7------------5---------|-------5------------3---------|
B|-----0---0--------0---0-------|-----0---0--------0---0-------|
G|---7-------7----6-------6-----|---5-------5----4-------4-----|
D|------------------------------|------------------------------|
A|------------------------------|------------------------------|
E|------------------------------|------------------------------|

e|-------5------------2---------|-------------12-------5-------||
B|-----0---0--------0---0-------|--------12------------5-------||
G|---5-------5----2-------2-----|---12-----------------5-------||
D|------------------------------|------------------------------||
A|------------------------------|------------------------------||
E|------------------------------|------------------------------||

This is the first tab I write so maybe it'll be hard to 
understand the rhythm, so you must listen to the song and learn 
the bit by yourself

For any questions or comments - slicer_65@hotmail.com
Comments