Poets Of The Fall - Dont Mess With Me Chords & Tabs

 

Dont Mess With Me Chords & Tabs

Poets Of The Fall Chords & Tabs

Version: 1 Type: Tab

Dont Mess With Me Tab

Intro:

e|-7--7--7-7-7--5--5-5-5-5-5-5-5--3--3--3-3-3--1--1-1-1-1-1-1-1-|
h|-7--7--7-7-7--5--5-5-5-5-5-5-5--3--3--3-3-3--1--1-1-1-1-1-1-1-|
g|-8--8--8-8-8--6--6-6-6-6-6-6-6--4--4--4-4-4--2--2-2-2-2-2-2-2-|
d|-9--9--9-9-9--7--7-7-7-7-7-7-7--5--5--5-5-5--3--3-3-3-3-3-3-3-|
a|-9--9--9-9-9--7--7-7-7-7-7-7-7--5--5--5-5-5--3--3-3-3-3-3-3-3-|
E|-7--7--7-7-7--5--5-5-5-5-5-5-5--3--3--3-3-3--1--1-1-1-1-1-1-1-| X2

e|---------------------------------------|
h|---------------------------------------|
g|------------7-5-------------55-77-88-9-|
d|-2-2---7-5--7-5--2-2---7-5--55-77-88-9-|
a|-2-2---7-5--5-3--2-2---7-5--33-55-66-7-|
E|-0-0---5-3-------0-0---5-3-------------|

Verse:
[ Tab from: http://www.guitartabs.cc/tabs/p/poets_of_the_fall/dont_mess_with_me_tab.html ]
e|---------------------------|
h|---------------------------|
g|---------------------------|
d|---------------------------|
a|-7---5---5---3---2---2-3-5-|
E|---------------------------| X4

Chorus:

e|-7--7--7-7-7--5--5-5-5-5-5-5-5--3--3--3-3-3--1--1-1-1-1-1-1-1-|
h|-7--7--7-7-7--5--5-5-5-5-5-5-5--3--3--3-3-3--1--1-1-1-1-1-1-1-|
g|-8--8--8-8-8--6--6-6-6-6-6-6-6--4--4--4-4-4--2--2-2-2-2-2-2-2-|
d|-9--9--9-9-9--7--7-7-7-7-7-7-7--5--5--5-5-5--3--3-3-3-3-3-3-3-|
a|-9--9--9-9-9--7--7-7-7-7-7-7-7--5--5--5-5-5--3--3-3-3-3-3-3-3-|
E|-7--7--7-7-7--5--5-5-5-5-5-5-5--3--3--3-3-3--1--1-1-1-1-1-1-1-| X4

e|---------------------------------------|
h|---------------------------------------|
g|------------7-5-------------55-77-88-9-|
d|-2-2---7-5--7-5--2-2---7-5--55-77-88-9-|
a|-2-2---7-5--5-3--2-2---7-5--33-55-66-7-|
E|-0-0---5-3-------0-0---5-3-------------|