Pod - Youth Of The Nation Chords & Tabs

 

Youth Of The Nation Chords & Tabs

Pod Chords & Tabs

Version: 14 Type: Tab 0 ratings
1 star 2 stars 3 stars 4 stars 5 stars
comments

Youth Of The Nation Tab

   
Artist - Payable on Death (P.O.D)
Song   - Youth of The Nation
Album  - Satelite
Tabber - Volt3r (Volt3r@mail.ru)

Tuning CGCFAD
Effects - delay (delay set to 450 msec)

Riff1
|-----|------------------|
|-----|------------------|
|-----|------------------|
|-----|----5___-5p3\2p0--|
|-----|------------------|
|--0--|--3---------------|
   w     e q. q s s s s 

Riff2
|-------|------------------|
|-------|------------------|
|-------|------------------|
|----7--|----5___-5p3\2p0--|
|-------|------------------|
|--0----|--3---------------|
   q.      e q. q s s s s

Riff3
|------------|---------|------------|------0-----0------|
|------------|--17-18--|------------|--1h3---1h3---1h3--|
|--------19--|---------|--------19--|-------------------|
|-----19-----|---------|-----19-----|-------------------|
|--17--------|---------|--17--------|-------------------|
|------------|---------|------------|-------------------|
   e  e  q.     5e 3e     e  e  q.     e e e e e e e e
[ Tab from: http://www.guitartabs.cc/tabs/p/pod/youth_of_the_nation_tab_ver_14.html ]
Solo Riff dist & electro harmonics
|------------|------------|--------------------------|------------|
|------------|------------|--------------------------|------------|
|------------|------------|--------------------------|------------|
|--12-14-15--|--14-15-17--|--17\15-14-r-14h15p14\12--|--14-12-10--|
|------------|------------|--------------------------|------------|
|------------|------------|--------------------------|------------|
   q. q. q      q. q. q      s  s  e  h s  s  s  s      q. e  h

Outro Riff  wah & delay
|-------------------|x6|--12v--|
|-------------------|  |-------|
|-------------------|  |-------|
|--2-3-5-2-3-5-2-3--|  |-------|
|-------------------|  |-------|
|-------------------|  |-------|
   e e e e e e e e

Play Order

Intro
play Riff1 x4

Verse
play Riff2 x4
play Riff3 x2

Chorus
play Riff1 x4

Verse 2
play Riff2 x4
play Riff3 x2

Chorus 2
Play Riff1 x4

Solo
play solo Riff x2

Verse 3
play Riff3 x2
rest 8 seconds
play Riff1 x2
play Riff2 x4

Outro
play Outro Riff
Comments