Pod - Youth Of The Nation Chords & Tabs

 

Youth Of The Nation Chords & Tabs

Pod Chords & Tabs

Version: 1 Type: Bass Tab 0 ratings
1 star 2 stars 3 stars 4 stars 5 stars
comments

Youth Of The Nation Bass Tab

Youth Of The Nation
P.O.D.

This is My First Bass Guitar Tab And I Did My best and what I hear is what
I type so enjoy!!!!! P>O *~Th~*
You can do this on 4 or 5 string by drop Dn the 4 string!!

First Part of the Verse
G/--------------------------------------------------|
D/--------------------------------------------------|
A/--------------------------------------------------|
E/-------5------------------------------------------|
B/--2--0----2-3-0---2~-----------------------------|

[ Tab from: http://www.guitartabs.cc/tabs/p/pod/youth_of_the_nation_btab.html ]
Second Part of the verse
G/--------------------------------------------------|
D/--------------------------------------------------|
A/-------5---7--------------------------------------|
E/-------3---5--3-3-3-3-3-3-3-5---------------------|
B/---3-0--------------------------------------------|

Chorus
G/--------------------------------------------------|
D/--------------------------------------------------|
A/---------------REPEAT-----------------------------|
E/-----------------4 Times--------------------------|
B/--1~-4~-------------------------------------------|


Solo Part
G/--------------------------------------------------|
D/--------------------------------------------------|
A/--------------------------------------------------|
E/--------------------------------------------------|
B/---2-0---5~----0-0~-------------------------------|

HOPE YOU LIKE IT!!!!!!!!!!!
DAMO
Comments