Pod - Without Jah Nothin Chords & Tabs

 

Without Jah Nothin Chords & Tabs

Pod Chords & Tabs

Version: 1 Type: Tab 0 ratings
1 star 2 stars 3 stars 4 stars 5 stars
comments

Without Jah Nothin Tab

   
Band- Pod
Song- Without Jah Nothin

Drop C:
C G C F A D

Intro: (x fdbk.)

d------------------------------------------x(19)------------------|
a-----------------------------------------------------------------|
f---------------------------------------------------------2-------|
c--------------------------------------------------x\-----2-------|
g--------------------------------------------------x\-------------|
c-----------------------------------------------------------------|
                                       ... one two three four ...

Verse: Fig. 1 (x2)

d-----------------------------------------------------------------|
a-----------------------------------------------------------------|
f-----------------------------------------------------------------|
c-2-2---0-2-2---0-2-2---0-2-5---5-7-7---7-7-7---7-4-4---4-4-4---4-|
g-2-2---0-2-2---0-2-2---0-2-5---5-7-7---7-7-7---7-4-4---4-4-4---4-|
c-2-2---0-2-2---0-2-2---0-2-5---5-7-7---7-7-7---7-4-4---4-4-4---4-|

d-----------------------------------------------------------------|
a-----------------------------------------------------------------|
f-----------------------------------------------------------------|
c-2-2---0-2-2---0-2-2---0-2-5---5-7-7---7-7-7---7-9-9---9-9-9---9-|
g-2-2---0-2-2---0-2-2---0-2-5---5-7-7---7-7-7---7-9-9---9-9-9---9-|
c-2-2---0-2-2---0-2-2---0-2-5---5-7-7---7-7-7---7-9-9---9-9-9---9-|

Chorus:




gtr. 1 (actually played on lower strings)

d-----------------------------------------------------------------|
a-----------------------------------------------------------------|
f-5-5---5-5-5---5-5-5---5-7---5---2-2---2-2-2---2-2-2---2-2-2---2-|
c-5-5---5-5-5---5-5-5---5-7---5---2-2---2-2-2---2-2-2---2-2-2---2-|
g-3-3---3-3-3---3-3-3---3-5---3---0-0---0-0-0---0-0-0---0-0-0---0-|
c-----------------------------------------------------------------|

gtr. 2 (played on 15th, 14th, and 12th frets)

d-8-8---8-8-8---8-8-8---8-8-7-7-----------------------------------|
a-x-x---x-x-x---x-x-x---x-x-x-x101010--101010--101010--101010--10-|
f-5-5---5-5-5---5-5-5---5-5-4-4-x-x-x---x-x-x---x-x-x---x-x-x---x-|
c-------------------------------7-7-7---7-7-7---7-7-7---7-7-7---7-|
g-----------------------------------------------------------------|
c-----------------------------------------------------------------|

gtr. 1 (actually played on lower strings)

d-----------------------------------------------------------------|
a-----------------------------------------------------------------|
f-5-5---5-5-5---5-5-5---5-7---5---2-2---2-2-2---2-4--4--4-4-4-4-7-|
c-5-5---5-5-5---5-5-5---5-7---5---2-2---2-2-2---2-4--4--4-4-4-4-7-|
g-3-3---3-3-3---3-3-3---3-5---3---0-0---0-0-0---0-2--2--2-2-2-2-5-|
c-----------------------------------------------------------------|

gtr. 2 (played on 15th, 14th, and 12th frets)
[ Tab from: http://www.guitartabs.cc/tabs/p/pod/without_jah_nothin_tab.html ]
d-8-8---8-8-8---8-8-8---8-8-8-8101010-10111212-12-----------------|
a-x-x---x-x-x---x-x-x---x-x-x-x-x-x-x--x-x-x-x--x-----------------|
f-5-5---5-5-5---5-5-5---5-5-5-5/7-7-7--7/8/9-9--9-21-21-21-21-21b-|
c-----------------------------------------------------------------|
g-----------------------------------------------------------------|
c-----------------------------------------------------------------|

Chorus lead before interlude:
(played on lower strings like before)

d-8-8---8-8-8---8-8-8---8-8-7-7-----------------------------------|
a-x-x---x-x-x---x-x-x---x-x-x-x101010--101010--1012-8---8-10-8~~--|
f-5-5---5-5-5---5-5-5---5-5-4-4-x-x-x---x-x-x---x-x---9-----------|
c-------------------------------7-7-7---7-7-7---7/9---------------|
g-----------------------------------------------------------------|
c-----------------------------------------------------------------|

d------------------------------------------------------14p12-15---|
a-----------------------------------------------------------------|
f-1717--17--17171717-1717--17-1716-1614-1414--14-14-16------------|
c--x-x---x---x-x-x-x--x-x---x--x-x--x-x--x-x---x------------------|
g-1515--15--15151515-1515--15-1514-1412-1212--12------------------|
c-----------------------------------------------------------------|

d-----------------------------------------------------------------|
a-17b~~~~~~~-17b(1)-----b(2)-----b(1)----b(2)----17b~~~(1)--b(2)--|
f-----------------------------------------------------------------|
c-----------------------------------------------------------------|
g-----------------------------------------------------------------|
c-----------------------------------------------------------------|

Interlude: (w/ chorus) (x3)

d---0---0---0-----------0---0---0-----------2---2---2---2--2---2--|
a---0---0---0-----------0---0---0-----------2---2---2---2--2---2--|
f---0---0---0-----------0---0---0-----------2---2---2---2--2---2--|
c----------------------------------------------------------2---2--|
g----------------------------------4-3-2--------------------------|
c-2------------2-4-5-2-------------------0------------------------|

... i keep livin� on ...

d---0---0---0-----------0---0---0-----------2---2---2---2--2---2--|
a---0---0---0-----------0---0---0-----------2---2---2---2--2---2--|
f---0---0---0-----------0---0---0-----------2---2---2---2--2---2--|
c--------------------------------------------------------------2--|
g----------------------------------5-4-2--------------------------|
c-2------------2-4-5-2-------------------0------------------------|

then,

d---0---0---0-----------0---0---0-----------2---2---2---2--2---2--|
a---0---0---0-----------0---0---0-----------2---2---2---2--2---2--|
f---0---0---0-----------0---0---0-----------2---2---2---2--2---2--|
c--------------------------------------------------------------2--|
g----------------------------------5-4-2--------------------------|
c-2------------2-4-5-2-------------------0------------------------|
Comments