Pod - Will You Chords & Tabs

 

Will You Chords & Tabs

Pod Chords & Tabs

Version: 1 Type: Tab 0 ratings
1 star 2 stars 3 stars 4 stars 5 stars
comments

Will You Tab

Hey Peoples. I got this C.D. today and it is totally awesome. I really like
P.O.D's new sound. Here is "Will You", their hit single. It is in standard
tuning. Don't thrash me if it is off. It is my first tab to post. Check the
song out for strumming patterns.



Intro/Chorus
E----------------------------------------------------------------
B----------------------------------------------------------------
G--9999-12121212-9999-12121212-777x777---------------------------   x2
D--xxxx-x x x x -xxxx-x x x x -xxxxxxx--101010-9-5-0-------------
A--7777 10101010 7777-10101010-555x555---------------------------
E----------------------------------------------------------------

Verses
E----------------------------------------------------------------
B----------------------------------------------------------------
G--7777xx7-9-10--3333xx3-5-7-------77777p0------55555h7----------  x4   
D--7777xx7-9-10--3333xx3-5-7--5555---------5555------------------
A--5555xx5-7-8 --1111xx1-3-5--3333---------3333------------------
E-----------------------------3333---------3333------------------

On 2nd Chorus play Intro/Chorus riff 4 times instead of 2 then play  this...

Bridge (Clean)
E----------------------------------------------------------------
B----------------------------------------------------------------
G----9999x9999x9999------7-7------7-7-----7-7------7-7-----------  x1 then...
D----7777x7777x7777--------7-7-3----7-5-----7-7-3----7-5---------
A----7777x7777x7777-----5--5-7-3-5--5-5--5--5-7-3-5--5-5--------- 
E----------------------------5-1------3-------5-1------3---------
[ Tab from: http://www.guitartabs.cc/tabs/p/pod/will_you_tab.html ]
E----------------------------------------------------------------
B----------------------------------------------------------------
G--9999-12121212-9999-12121212-7777777777777---------------------   x2
D--xxxx-x x x x -xxxx-x x x x -xxxxxxxxxxxxx---------------------
A--7777 10101010 7777-10101010-5555555555555---------------------
E----------------------------------------------------------------

Distortion kicks back in.
E----------------------------------------------------------------
B----------------------------------------------------------------
G--9999-12121212-9999-12121212-777x777---------------------------   x4
D--xxxx-x x x x -xxxx-x x x x -xxxxxxx--101010-9-5-0-------------
A--7777 10101010 7777-10101010-555x555---------------------------
E----------------------------------------------------------------

Screaming part.
E----------------------------------------------------------------
B----------------------------------------------------------------
G--1010-1010-99-99-77-77-----------------------------------------   x2
D--x x -x x -xx-xx-xx-xx------10-9-5-10-9------------------------
A--8 8 -8-8 -77-77-55-55-----------------------------------------
E----------------------------------------------------------------

End on this.
E----------------------------------------------------------------
B----------------------------------------------------------------
G--9-------------------------------------------------------------
D--x-------------------------------------------------------------
A--7-------------------------------------------------------------
E----------------------------------------------------------------

And that is it. Congrats goes out to P.O.D. and their new release. Have fun
with this tab and correct me on some parts.Like the bridge. I don't think it
is completely right. Peace, Love, and Chicken Grease.    -Daniel
Comments