Pod - Will You Chords & Tabs

 

Will You Chords & Tabs

Pod Chords & Tabs

Version: 1 Type: Bass Tab 0 ratings
1 star 2 stars 3 stars 4 stars 5 stars
comments

Will You Bass Tab

I've been tabbing this for weeks now and this is as far as I'm willing to go,
its not 100% but it sounds great and its pretty damn close.

Intro

G|------------------
D|-----------4/5----
A|55-33-11--5---5---                       
E|---------3-----3--

G|-----------
D|-----------
A|55-33-11---                              
E|---------33       


Verse 1

G|-------------------------
D|------2------------------
A|5555-5-1111-13-----------                x4    
E|---------------3333-3333-


Chorus 1

G|------------------
D|-----------4/5----
A|55-33-11--5---5---                       
E|---------3-----3--

G|-----------------
D|-----------------
A|55-33-11---------
E|---------33------


Verse 2

G|-------------------------
D|------2------------------
A|5555-5-1111-13-----------                x4    
E|---------------3333-3333-


Chorus 2

G|------------------
D|-----------4/5----
A|55-33-11--5---5---                       
E|---------3-----3--

G|-----------------
D|-----------------
A|55-33-11---------
E|---------33------


G|-----------------------------
D|----575-----020---------4/5--         
A|55-----5-33----3-11-11-5---5-
E|----------------------3-----3

G|------------------------
D|--5/12---020-----4/5----
A|55----3-----311-5---5---
E|-------3-------3-----3--

[ Tab from: http://www.guitartabs.cc/tabs/p/pod/will_you_btab.html ]
Bridge
G|---------------------------
D|------1/13-----------------
A|6-6-6-----5-3-5-3-----0-3--
E|------------------3--------

G|------------------
D|------------------
A|5*--3-3/5-3-0-1---
E|----------------3-

G|----------------------------
D|----------------------------
A|5--5-7-5-3-1--1-3-1-0-------
E|----------------------3/15--

G|---------------------------------------------
D|---------------------------------------------
A|55555555553333333333111111111111-------------            x2
E|--------------------------------333333333333-

Last Chorus

G|------------------
D|-----------4/5----
A|55-33-11--5---5---                       
E|---------3-----3--

G|-----------------
D|-----------------
A|55-33-11---------
E|---------3333----

G|-----------------
D|-----------------
A|55-33-11---------
E|---------3333----

G|-----------------------------
D|----575-----020---------4/5--         
A|55-----5-33----3-11-11-5---5-
E|----------------------3-----3

Outro

G|---------------------------
D|---------------------------
A|-55--55--33--33--11--11----
E|------------------------33-

G|--------------------------------
D|--------------------------------
A|-55--55--33--33--11--11---------
E|------------------------33-3/10-

Sorry if its a bit confusing, I tried to help with the timing but at the same
time didn't want double figures getting mixed up with single figures.
Anyway yeah thats the song - please leave any corrections.
Thanks
Dave
Comments