Pod - Waiting On Today Chords & Tabs

 

Waiting On Today Chords & Tabs

Pod Chords & Tabs

Version: 1 Type: Bass Tab 0 ratings
1 star 2 stars 3 stars 4 stars 5 stars
comments

Waiting On Today Bass Tab

-------------------------------------------------------------------------------
			     Waiting On Today - P.O.D.
-------------------------------------------------------------------------------

Tabbed By : jman04
e-mail: jman107@earthlik.net

I listened extra carefully on this one....if its not exact it's pretty dam close....

Tuning: dropped D


Intro/transaction
G|--------------------------------------------------------------------|
D|--------------------------------------------------------------------|
A|---6666-6666--------------------------------------------------------|
D|-------------------5555-5555----------------------------------------|


verses
G|--------------------------------------------------------------------|
D|----------010---------010---------010---------010-------------------|
A|---3333------53333-----50000------50000-----5-----------------------|
D|--------------------------------------------------------------------|


[ Tab from: http://www.guitartabs.cc/tabs/p/pod/waiting_on_today_btab.html ]
Prechorus
G|--------------------------------------------------------------------|
D|--------------------------------------------------------------------|
A|------353---353---353--353------------------------------------------|
D|--33-----33-----00----00--------------------------------------------|


chorus
G|--------------------------------------------------------------------|
D|-------------------5--5---------------------------------------------|
A|---6--1---------5--5--5---------------------------------------------|
D|----------5555------------------------------------------------------|


outro
G|--------------------------------------------------------------------|
D|--------------------------------------------------------------------|
A|--6--6/1------------------------------------------------------------|
D|-----------5--------------------------------------------------------|


Song Structure:

Intro   x2
verses   x2
prechorus  x2
chorus     x2
verse    x2
prechorus     x2
chorus    x4
transaction   x2
prechorus    x4
chorus     x4
Outro      x1

this is a great song........it makes you happy
Comments