Pod - Thinking About Forever Chords & Tabs

 

Thinking About Forever Chords & Tabs

Pod Chords & Tabs

Version: 5 Type: Tab 0 ratings
1 star 2 stars 3 stars 4 stars 5 stars
comments

Thinking About Forever Tab

tuning-CGCFAD
payable of death(p.o.d)
thinking about forever

ok im postive this is right it took me awhile to figure out the beginning chords
but here it is. send all flames and such to blkwolf2chains@aol.com 
D--2---2---3----3h5-5--5/7-7-7/9-9-9/10-10--10-|--2---2--2---2---
A--2---2---3----0------0-----0-----0---------0-|--2---2--2---2---
F--4---4---4-----------------------------------|--4-4-4--4-4-4---
C--4---4---5-----------------------------------|--4-4-4--4-4-4---
G--2---0---x-----------------------------------|--2---4~~0---4~~-
C----------5-----------------------------------|----------------- 
                  
D--3---3----------------
A--4---4----------------
F--4---4----------------
C--5---4----------------
G--x---5----------------
C--5------5/long slide--

Verse2
D--------------------------------------------------------------------
A--------------------------------------------------------------------
F-----4-----4--------------------------------4-----4---------------0-
c---4-----4---4p2p0---------0-----0--------4-----4---4p2p0---------0-
G-2-----0----------4p2p0--0---0-0---0-2--2-----0----------4p2p0--0---
C-----------------------5--------------------------------------5-----

Chorus-go to first part of the intro then play the chords
again, and then slide down on the 5th fret of the 1st or 3rd C (im not sure which)

Verse
Chorus-play the riff after the chords both times. just listen to the cd a couple
times it makes it easier

-Solo-
D------------------------------------------------------------------
A-------------------7-5---5-7-7-8-8-8-1010p8p7h8--8p7p5h7--5---5--
F-------------4-6-7-----7-------------------------------------7----
C-4-5---4h5h7------------------------------------------------------
G------------------------------------------------------------------
C------------------------------------------------------------------
[ Tab from: http://www.guitartabs.cc/tabs/p/pod/thinking_about_forever_tab_ver_5.html ]
D--------------------------------------------------------------
A----------------------------------------------5h7-7h8-7--8-7--
F-7-6-7-6-7-6-7/9-7h9p7p6--9-7h9p7p6--6h7-7h9------------------
C--------------------------------------------------------------
G--------------------------------------------------------------
C--------------------------------------------------------------


D--------------------------------------------------------------------
A-----------5-7--5---------------------------------------------------
F-----4-6-7--------7--6-4-6-6b7b6--4-4-6-6b7b6-----------------------
C-5-7----------------------------------------------------------------
G--------------------------------------------------------------------
C--------------------------------------------------------------------

C: till end

-last SoLo-

D-------------------------------------------------------------------
A-------------------------------------------------------------------
F-------------------------11-9----9--11-11/12-12-12h13--12h13h12-12-
C----------------9h11h12-------12-----------------------------------
G--9-10--9h10h12----------------------------------------------------
C-------------------------------------------------------------------

D----------------------------------------------------------------------
A----------------------------------------------------------------------
F--11------------------------------------------------------------------
C------14-12-14-12--11h12-11h12--12/14-14--12h13p12-10--13-12h13p12-10-
G----------------------------------------------------------------------
C----------------------------------------------------------------------

D--------------------------------------------------------------------
A--------------------------------------------------------------------
F-------------------------------------------------------11-9---------
C--11-11/12-12/14-14/15-15-16-15h16-16----------9-11-12------12------
G---------------------------------------9-10-12----------------------
C--------------------------------------------------------------------

D---------------------------------------
A---------------------------------------
F---------------------------------------
C--11-9h11--11h12p11--9-9h11--11h12p11--
G---------------------------------------
C---------------------------------------
Comments