Pod - Thinking About Forever Chords & Tabs

 

Thinking About Forever Chords & Tabs

Pod Chords & Tabs

Version: 1 Type: Bass Tab 0 ratings
1 star 2 stars 3 stars 4 stars 5 stars
comments

Thinking About Forever Bass Tab

   
Band: P.O.D.
Song: Thinking About Forever
Album: Satellite
Tabbed by: 112178
Tuning: E,A,D,G

^ = bend the note
\ = slide down
/ = slide up

Intro:          play this 3x
G/-------------------------------|     G/---------|
D/-------------------------------|     D/---------|play this at the end of the
A/-------19----------------------|     A/---------|intro when it goes into the verse.
E/-17---------19-------19^-------|     E/-19\-----|its a real slow slide.


Verse:
G/--------------------------------------|
D/--------------------------------------|
A/-------7---------------------3--------|
E/-5---------7----------1----------3----|

[ Tab from: http://www.guitartabs.cc/tabs/p/pod/thinking_about_forever_btab.html ]
Chorus:
G/----------------------------------------------------------------------------------|
D/----------------------------------------------------------------------------------|
A/----------------------------------------------------------------------------------|
E/-5-5--5--5-5--5---5-5---3-3--3-3---3--3--3---1-1--1-1---1--1---1--1---1---1--1--1-|


guitar solo:
G/----------------------------------------------------------------------------
D/----------------------------------------------------------------------------
A/----------------------------------------------------------------------------
E/-5--5-5--5--5--5-5---3--3--3--3--3--3---1--1--1--1---1--1-1--1---1--1--1----

guitar solo continued:
G/----------------------------------------------------------------------------------|
D/----------------------------------------------------------------------------------|
A/----------------------------------------------------------------------------------|
E/-0--0--0-0--0--0-0--0-0--0--0--0--3--3--3--3--3--3---1---1--1---1---1---1--1--1---|


Ending:
G/-------------|
D/-------------|
A/-------------|
E/--15-/-17----|
this is a sow slide also.
Comments