Pod - The Reasons Chords & Tabs

 

The Reasons Chords & Tabs

Pod Chords & Tabs

Version: 1 Type: Tab 0 ratings
1 star 2 stars 3 stars 4 stars 5 stars
comments

The Reasons Tab

Band- Pod
Song- The Reasons

Intro/Verse
(0:02 - 0:30)
E|--------0-----------0----------|
B|-------------------------------|
G|---7------7-----7-----7--------| x12  
D|-7----7-----7-----7------------|
A|-------------------------------|
D|-------------------------------|

Pre-chorus
(0:30 - 0:48)
E|-------------------------8888-5555---5555-------|
B|-5555-6666---5555-6666--------------------6666--|
G|------------------------------------------------|  x2
D|------------------------------------------------| 
A|------------------------------------------------|
D|------------------------------------------------|

Verse
(0:48 - 1:02)                         (1:02 - 1:07)
E|--------0-----------0----------|    |--------0----------------------------------------|
B|-------------------------------|    |--------------------6-----------6-----------6----|
G|---7------7-----7-----7--------| x6 |---7------7-----7-----7-----7-----7-----7-----7--|
D|-7----7-----7-----7------------|    |-7----7-----7-----7-------7---7-----7-----7------|
A|-------------------------------|    |-------------------------------------------------|
D|-------------------------------|    |-------------------------------------------------|
[ Tab from: http://www.guitartabs.cc/tabs/p/pod/the_reasons_tab.html ]
Chorus
(1:25 - 1:43)                                                 |     [12]     |
E|----------------------------------------88888888-55555555---1212121212121212-88888888-----|
B|-55555555-66666666---55555555-66666666----------------------------------------------------|
G|------------------------------------------------------------------------------------------|
D|------------------------------------------------------------------------------------------|
A|------------------------------------------------------------------------------------------|
D|------------------------------------------------------------------------------------------|

Bridge
(1:44 - 2:20)
E|-----------------------------------------|
B|-----------------------------------------|
G|------9\5-------9\5------7\2-------2/5---| x4
D|------9\5-------9\5------7\2-------2/5---|
A|---7---------5--------3---------3--------|
D|-7---------5---------3---------3---------|


Ending
(2:57 - 3:09)         |quite| 
E|-----------3----3------------3------------------------------------|
B|-----------1------1----------1------------------------------------|
G|-------5\----------------0----------------------------------------|
D|-------5\--------------0----------555\3--333\1--111\0--000h1p0----|
A|---------------------0-----------------------------------------3--|
D|-0-2-3------------------------------------------------------------|

(3:09 - 3:20)                
E|-----------3----3--3-5----------------------|
B|-----------1----1---------------------------|
G|-------5\-----------------------------------|
D|-------5\----------------555\333/777\333~---|
A|--------------------------------------------|
D|-0-2-3--------------------------------------|

(3:20 - 3:32)         |quite| 
E|-----------3----3------------3------------------------------------|
B|-----------1------1----------1------------------------------------|
G|-------5\----------------0----------------------------------------|
D|-------5\--------------0----------555\3--333\1--111\0--000h1p0----|
A|---------------------0-----------------------------------------3--|
D|-0-2-3------------------------------------------------------------|

(3:32 - end)
E|-------3~---|
B|-------1~---|
G|-------2----| x4
D|-------0----|
A|------------|
D|-0-2-3------|
Comments