Pod - Space Chords & Tabs

 

Space Chords & Tabs

Pod Chords & Tabs

Version: 2 Type: Tab 0 ratings
1 star 2 stars 3 stars 4 stars 5 stars
comments

Space Tab

"Space"
by Payable On Death (P.O.D.)
Payable On Death (2003/Atlantic/3 Points)

tabulture interpreted/written/transcribed by Zak Hall
zakhall@gmail.com

Note: this is my best interpretation of what is being played, and is probably in some
way inaccurate, and I am aware of that, however, I put this out here because I believe
it is close enough to place out there, and is probably more accurate than most unofficial
tabs, because I am avidly against stupidly inaccurate tabs.


legend:
#'s (1,2,3...) = fret number / note to be held, not finger placed there necessarily
x =palm mute
x##...=palm mute fret number
|| =end of phrase/measure(s)
|||| = repeat phrase/measure(s)
(#) = harmonics (on that fret)
x(#) = harmonic strum
# + # = hammer-on
# * # = pull-off
@# = vibrato
# ^ (#) = bend note up (#) steps
# / # = slide up
# \ # = slide down
$# = sweep pick
[#] = optional (would fit, and/or sounds like it's being played, though not certain)
#______ = hold out

Tuning:
Drop-D, down a whole step (CGCFAD)



Verse:

D|-----||------------------------------------------------||
A|-----||------------------------------------------------||
F|-----||------------------------------------------------||
C|-----||----------------------------77777__-------------||
G|-7-5-||-2-4-2-4-2-------2-4-2-4__--55555__----7777_5^__||
D|-5-3-||-0-2-0-2-0--x(0)-0-2-0-2__xx---------x-5555_3^__||  

D|------------------------------------------------||
A|------------------------------------------------||
F|------------------------------------------------||
C|----------------------------77777__-------------||
G|-2-4-2-4-2-------2-4-2-4__--55555__----7777_5^__||
D|-0-2-0-2-0--x(0)-0-2-0-2__xx---------x-5555_3^__||  

D|------------------------------------------------||
A|------------------------------------------------||
F|------------------------------------------------||
C|-----------------------------77777__------------||
G|-2-4-2-4-2-------2-4-2-4__---55555__---7777_5^__||
D|-0-2-0-2-0--x(0)-0-2-0-2__xx---------x-5555_3^__||  
[ Tab from: http://www.guitartabs.cc/tabs/p/pod/space_tab_ver_2.html ]
D|------------------------------------------------||
A|------------------------------------------------||
F|------------------------------------------------||
C|-----------------------------77777__------------||
G|-2-4-2-4-2-------2-4-2-4__---55555__---7777_77__||
D|-0-2-0-2-0--x(0)-0-2-0-2__xx---------x-5555_55__||  

Chorus:

D|------0_____--2__2_------------||
A|------0_____--0__0_------------||
F|------8_____--0__0_--2__0_-----||
C|-9__999_____--0__0_-------4_0_-||
G|-9__999_____--2__2_------------||
D|-7__777_____3-3__3_x-----------||

Bridge:

D|--------------------------||--------------------------||||
A|--------------------------||--------------------------||||
F|--------------------------||--------------------------||||
C|--------------------------||--------------------------||||
G|--------------------------||-2_4_2_4_2__x-2_4_2_4_2___||||
D|-(bass lead-in 02020...)--||-0_2_0_2_0__x-0_2_0_2_0___||||

D|--------------------------------||||||||--------------------------||
A|--------------------------------||||||||--------------------------||
F|-(palm muted throughout)--------||||||||--------------------------||
C|-------(and so forth...)--------||||||||-xx-77777__---------------||
G|-2-4-2-4-2-------2-4-2-4-2------||||||||-xx-55555__------7777_5^__||
D|-0-2-0-2-0--x(0)-0-2-0-2-0-x(0)-||||||||--------------xx-5555_3^__||

D|--------------------------------||||--------------------------||
A|--------------------------------||||--------------------------||
F|-(palm muted throughout)--------||||--------------------------||
C|-------(and so forth...)--------||||-xx-77777__---------------||
G|-2-4-2-4-2-------2-4-2-4-2------||||-xx-55555__------7777_77__||
D|-0-2-0-2-0--x(0)-0-2-0-2-0-x(0)-||||--------------xx-5555_55__||

Outro:

D|---------------------------------||
A|---------------------------------||
F|--------9^_____------------------||
C|--------7^_____7_7--7__5__4------||
G|-88888888^_____5_5----------5----||
D|-66666666^_____5_5-x-------------||

D|----------------------------||
A|----------------------------||
F|--------9^_____-------------||
C|--------7^_____7_________---||
G|-88888888^_____5_________---||
D|-66666666^_____5_________---||


D|------------------------------------||
A|------------------------------------||
F|--------9^_____---------------------||
C|--------7^_____7_7--7__-------------||
G|-88888888^_____5_5-----8_------0----||
D|-66666666^_____5_5-x-------10__-----||


D|----------------||
A|----------------||
F|--------9^_____-||
C|--------7^_____-||
G|-88888888^_____-||
D|-66666666^_____-||
Comments