Pod - Southtown Chords & Tabs

 

Southtown Chords & Tabs

Pod Chords & Tabs

Version: 8 Type: Tab 0 ratings
1 star 2 stars 3 stars 4 stars 5 stars
comments

Southtown Tab

intro:
|----------------------------------------
|----------------------------------------
|----------------------------------------    played 4x's
|--4444---------------4444---------------
|--2222-2222222222222-2222-2222222222222-
|------ 3333333333333------0000000000000-
chorus:
|----------------------------------
|----------------------------------
|----------------------------------
|-4--------------4444--------------     played 6x's
|-2-555--5--5555-2222-222--2--2222-
|---333--3--3333------000--0--0000-
PRE CHORUS
|-----------------------
|-----------------------
|-----------------------
|-----------------------
|----10----9------------
|-0---------------------
CHORUS
|--------------------------------------------------------------------
|--------------------------------------------------------------------
|--------------------------------------------------------------------   played
|-3---3---5-5-5-5--3---3---5-5-5-5--0---0---2-2-2-2--0---0---2-2-2-2-    4x's
|-3---3------------3---3------------0---0------------0---0-----------
|-3---3------------3---3------------0---0------------0---0-----------
MAIN RIFF
|----------------------------------
|----------------------------------
|----------------------------------
|-4--------------4444--------------     played 6x's
|-2-555--5--5555-2222-222--2--2222-
|---333--3--3333------000--0--0000-
PRE CHORUS
|-----------------------
|-----------------------
|-----------------------
|-----------------------
|----10----9------------
|-0---------------------
CHORUS
|--------------------------------------------------------------------
|--------------------------------------------------------------------
|-------------------------------------------------------------------   played
|-3---3---5-5-5-5--3---3---5-5-5-5--0---0---2-2-2-2--0---0---2-2-2-2-    4x's
|-3---3------------3---3------------0---0------------0---0-----------
|-3---3------------3---3------------0---0------------0---0-----------
BREAK DOWN 1
|--------------------------
|--------------------------
|--------------------------
|--------------------------   played 6 x's
|----9-10----9-10----9-10--
|-0-------0-------0--------
BREAK DOWN 2
|------------------------------------
|------------------------------------
|------------------------------------
|-0---2---3-----0---2---3--x--x----x-    played 4 x's and then 
|-0---2---3-----0---2---3--x--x----x-    chorus is played 4 more
|-0---2---3-----0---2---3--x--x----x-    times.

MAIN RIFF
|----------------------------------
|----------------------------------
|----------------------------------
|-4--------------4444--------------     played 6x's
|-2-555--5--5555-2222-222--2--2222-
|---333--3--3333------000--0--0000-
CHORUS
|--------------------------------------------------------------------
|--------------------------------------------------------------------
|--------------------------------------------------------------------   played
|-3---3---5-5-5-5--3---3---5-5-5-5--0---0---2-2-2-2--0---0---2-2-2-2-    4x's
|-3---3------------3---3------------0---0------------0---0-----------
|-3---3------------3---3------------0---0------------0---0-----------

OUTRO
|---------------------------------------
|---------------------------------------
|---------------------------------------
|-3-3-3-3-33-3-3-5B-3-3-3-3-3-3-3-3
|-3-3-3-3-33-3-3----3-3-3-3-3-3-3-3
|-3-3-3-3-33-3-3----3-3-3-3-3-3-3-3
[ Tab from: http://www.guitartabs.cc/tabs/p/pod/southtown_tab_ver_8.html ]
Comments