Pod - Southtown Chords & Tabs

 

Southtown Chords & Tabs

Pod Chords & Tabs

Version: 6 Type: Tab 0 ratings
1 star 2 stars 3 stars 4 stars 5 stars
comments

Southtown Tab

I know there is alot of tabs for this song, but I hope you will agree that mine sounds the BEST!
All gtrs. are dropped one whole step down (low to high: D-G-C-F-A-D). You can use regular tuning (low to high: E-A-D-G-B-E), it just wont sound as heavy as it does on the CD.

Intro: (0:00 - 0:34)

D------------------------------------------------------
A------------------------------------------------------
F------------------------------------------------------
C--4444--------------4444------------------------------
G--2222-222222222222-2222-222222222222-----------------
D-------333333333333------000000000000-----------------
  [     Repeat this 4 times           ] 


Verses: (0:34 - 1:11)

D------------------------------------------------------
A------------------------------------------------------
F------------------------------------------------------
C--4---555-5-5555-444-222-2-2222-444-------------------
G--2---555-5-5555-222-222-2-2222-222-------------------
D------333-3-3333-----000-0-0000-----------------------
      [     Repeat this 6 times     ]


Verses: (1:17 - 1:41)

D------------------------------------------------------
A------------------------------------------------------
F--------------22----22--------------------------------
C--55777-55777-22444-22444-----------------------------
G--55----55----22----22--------------------------------
D--33----33--------------------------------------------
  [ Repeat this 4 times   ]


Verses: (1:41 - 2:05)

D------------------------------------------------------
A------------------------------------------------------
F------------------------------------------------------
C--555-5-5555-444-222-2-2222-444-----------------------
G--555-5-5555-222-222-2-2222-222-----------------------
D--333-3-3333-----000-0-0000---------------------------
  [     Repeat this 4 times     ]


Verses: (2:11 - 2:35)
[ Tab from: http://www.guitartabs.cc/tabs/p/pod/southtown_tab_ver_6.html ]
D------------------------------------------------------
A------------------------------------------------------
F--------------22----22--------------------------------
C--55777-55777-22444-22444-----------------------------
G--55----55----22----22--------------------------------
D--33----33--------------------------------------------
  [ Repeat this 4 times   ]


Verses: (2:35 - 3:00)

D------------------------------------------------------
A------------------------------------------------------
F------------------------------------------------------
C------------------------------------------------------
G----9-10---9-10---9-----9-10---9-10-~9~---------------
D--0------0------0-----0------0------------------------
 [Repeat this 3 times][ Then play this  ]
[    Play this entire verse 2 times      ]


Verses: (3:01 - 3:24)

D------------------------------------------------------
A------------------------------------------------------
F------------------------------------------------------
C--245-245-x-x-x---------------245-245-4---------------
G--245-245-x-x-x---------------245-245-2---------------
D--023-023-x-x-x---------------023-023-----------------
  [ Repeat this 7 times ]     [Play this 1 time]


Verses: (3:25 - 3:36)

D------------------------------------------------------
A------------------------------------------------------
F------------------------------------------------------
C--555-5-5555-444-222-2-2222-444-----------------------
G--555-5-5555-222-222-2-2222-222-----------------------
D--333-3-3333-----000-0-0000---------------------------
  [     Repeat this 2 times     ]


Verses: (3:37 - 4:00)

D------------------------------------------------------
A------------------------------------------------------
F--------------22----22--------------------------------
C--55777-55777-22444-22444-----------------------------
G--55----55----22----22--------------------------------
D--33----33--------------------------------------------
  [ Repeat this 4 times   ]

Verses: (4:01 - 4:36)

D------------------------------------------------------
A------------------------------------------------------
F------------------------------------------------------
C--555-5-5555b7b-222-2-2222----------------------------
G--555-5-5555----222-2-2222----------------------------
D--333-3-3333----000-0-0000----------------------------
  [   Repeat this 1 time    ]


Well, thats it! This is my first contribution, hope you guys like it...



Comments