Pod - Southtown Chords & Tabs

 

Southtown Chords & Tabs

Pod Chords & Tabs

Version: 3 Type: Tab 0 ratings
1 star 2 stars 3 stars 4 stars 5 stars
comments

Southtown Tab

   
Artist:  POD
Song:    Southtown

Tuning:  E A D G B E (STANDARD)
Tabbed by Javier Munoz

Intro (clean)
----------------------------------------------------------------------
----------------------------------------------------------------------
--4-4-4-4---------------------------4-4-4-4---------------------------
--4-4-4-4--5-5-5-5-5-5-5-5-5-5-5-5--4-4-4-4--2-2-2-2-2-2-2-2-2-2-2-2--  4x
--2-2-2-2--5-5-5-5-5-5-5-5-5-5-5-5--2-2-2-2--2-2-2-2-2-2-2-2-2-2-2-2--
-----------3-3-3-3-3-3-3-3-3-3-3-3-----------0-0-0-0-0-0-0-0-0-0-0-0--

Verse (distortion)
---------------------------------------------------
---------------------------------------------------
--4----------------------4-4-4---------------------
--4---5-5-5--5--5-5-5-5--4-4-4--2-2-2--2--2-2-2-2--
--2---5-5-5--5--5-5-5-5--2-2-2--2-2-2--2--2-2-2-2--
------3-3-3--3--3-3-3-3---------0-0-0--0--0-0-0-0--
[ Tab from: http://www.guitartabs.cc/tabs/p/pod/southtown_tab_ver_3.html ]
Chorus (distortion)
-----------------------------------------------------------------
-----------------------------------------------------------------
-----------------------------------------------------------------
--5--5--5-5-5-5---5--5--5-5-5-5---2--2--2-2-2-2---2--2--2-2-2-2--
--5--5------------5--5------------2--2------------2--2-----------
--3--3------------3--3------------0--0------------0--0-----------

Bridge
----------------------------------          
----------------------------------           
----------------------------------           
--2--4--5--2----4--5----x--x---x--  8x Then  
--2--4--5--2----4--5----x--x---x--          
--0--2--3--0----2--3----x--x---x--           

-------------------------------------------------------
-------------------------------------------------------
----------------------4-4-4---------------------4-4-4--
---5-5-5--5--5-5-5-5--4-4-4--2-2-2--2--2-2-2-2--4-4-4--
---5-5-5--5--5-5-5-5--2-2-2--2-2-2--2--2-2-2-2--2-2-2--
---3-3-3--3--3-3-3-3---------0-0-0--0--0-0-0-0---------

Outro
---------------------------------------------
---------------------------------------------
--4-4-4--4--4-4-4-4--------------------------
--4-4-4--4--4-4-4-4--5^---2-2-2--2--2-2-2-2--
--2-2-2--2--2-2-2-2-------2-2-2--2--2-2-2-2--
--------------------------0-0-0--0--0-0-0-0--










Comments