Pod - Southtown Chords & Tabs

 

Southtown Chords & Tabs

Pod Chords & Tabs

Version: 1 Type: Tab 0 ratings
1 star 2 stars 3 stars 4 stars 5 stars
comments

Southtown Tab

Song-Southtown
Artist-P.O.D
Album-The Fundamental Elements of Southtown
Other notes:Drop D Tuning

  Ok people this is a really easy song to play.
      Opening and verse.
E|-------------------------------------------------------------------
B|-------------------------------------------------------------------
G|-------------------------------------------------------------------
D|---7--333--33-333--7777---000--00  0000----------------------------------------------------
A|---7--333--33-333--7777---000--00--0000------repeat a couple times--------------------------------------------
D|---7--333--33 333--7777---000--00--0000-----------------------------

E|--------------------------------------------------------------------
B|--------------------------------------------------------------------
G|--------------------------------------------------------------------
D|-0---3----2------------------------------------------------------------
A|-0---3----2------------------------------------------------------------
D|-0---3----2---------------------------------------------------------

Chorus- Here in the southtown       you know where kids dont play
[ Tab from: http://www.guitartabs.cc/tabs/p/pod/southtown_tab.html ]
E|--------------------------------------------------------------------
B|--------------------------------------------------------------------
G|--------------------------------------------------------------------
D|-----3---3------------------555-------------3-------3-------------555
A|-----3---3----------------------------------3-------3----------------
D|-----3---3----------------------------------3-------3----------------


E|---------------------------------------------------------------------
B|---------------------------------------------------------------------
G|---------------------------------------------------------------------
D|-----0---0----------------222---------------0-------0----------222-
A|-----0---0----------------------------------0-------0-------------
D|-----0---0----------------------------------0-------0-------------

repeat verse and chorus.

Bridge- Screaming

E|-------------------------------------------------------------------
B|-------------------------------------------------------------------
G|-------------------------------------------------------------------
D|---0---2---3-----0---2 --3----00-----------------------------------
A|---0---2---3-----0---2---3----00-------repeat 2X-------------------
D|---0---2---3-----0---2---3----00---------------------------------
  
repeat chorus 3X



any questions e-mail me at strat2621@aol.com

Comments