Pod - Southtown Chords & Tabs

 

Southtown Chords & Tabs

Pod Chords & Tabs

Version: 3 Type: Bass Tab 0 ratings
1 star 2 stars 3 stars 4 stars 5 stars
comments

Southtown Bass Tab

SONG: southtown
BAND: P.O.D.
TABBED BY: Xeribral.corteX
this is in standar tuning...
*you don't have to exactly follow this tabb coz this is just like your road 
to figure it out correctly, to the point, your on your own...
[in your points of view]... if you have corrections, polite complaints
mail me at Xeribral_corteX@hotmail.com 
*the X's are capital...

Intro:

G|---------------------------------
D|--------------------------------- 
A|--2222-----------2222------------
E|-------33333333-------0000000----  [4x] 
[ Tab from: http://www.guitartabs.cc/tabs/p/pod/southtown_btab_ver_3.html ]
Verse: "welcome to hard times..."
repeat whole tab for verse 1: *note for verse 2 and 3, discard note "b"...
G|---------------------------------
D|--------------------------------- 
A|--2-----------2------------------
E|-----33333333----00000000--------

Chorus: "here in the southtown..."
G|---------------------------------
D|--------------------------------- 
A|------5------5-----3-----3-------
E|--333---555----333----55---------

Bridge:
it's after the verses...
G|---------------------------------
D|--------------------------------- 
A|--0-2--------3-------------------
E|------3--------3-0---------------

????:
"i would go over my fist just to be like this..."
G|---------------------------------
D|--------------------------------- 
A|-----0--3----0-3---0------------
E|---3--------3-----3-------------- [11x] *the counting might be wrong, just figure it out...
Comments