Pod - Sleeping Awake Chords & Tabs

 

Sleeping Awake Chords & Tabs

Pod Chords & Tabs

Version: 4 Type: Tab 0 ratings
1 star 2 stars 3 stars 4 stars 5 stars
comments

Sleeping Awake Tab

   
Band: POD
Song: Sleeping Awake

Tabbed by: Felix Fenzl
Date of Tab: 07.05.2003


I don't really know in which tuning this song is originally in, but I play it in
Drop C: C
	G
	C
	F
	A
	D
"System of a Down" use the same!!

So here it is...


Intro/Verse
[ Tab from: http://www.guitartabs.cc/tabs/p/pod/sleeping_awake_tab_ver_4.html ]
    D D U D U  D D D    D D U D U  D D D  D  D  U  D  U   D D D     D  D  U  D  U   D  D  U  D  U
D ------------------------------------------------------------------------------------------------
A ------------------------------------------------------------------------------------------------
F --9-9-9-9-9-----------9-9-9-9-9----------------------------------12-12-12-12-12--10-10-10-10-10-
C --9-9-9-9-9--2-2-2----9-9-9-9-9--2-2-2--10-10-10-10-10---2-2-2---12-12-12-12-12--10-10-10-10-10-
G --7-7-7-7-7--2-2-2----7-7-7-7-7--2-2-2---8--8--8--8--8---2-2-2---10-10-10-10-10---8--8--8--8--8-
C -------------2-2-2---------------2-2-2-------------------2-2-2----------------------------------


Chorus:

   "D D U D U" every part 2x
D --------------------------------------------------------
A --------------------------------------------------------
F --9-9-9-9-9---------------------------------------------	
Comments