Pod - Sleeping Awake Chords & Tabs

 

Sleeping Awake Chords & Tabs

Pod Chords & Tabs

Version: 3 Type: Tab 0 ratings
1 star 2 stars 3 stars 4 stars 5 stars
comments

Sleeping Awake Tab

Artist:  P.O.D.
Song:  Sleeping Awake
CD:  Matrix Reloaded Soundtrack
Tuning:  Drop D

O.K. folks, here it finally is.  It's May 8th today, and the CD came out May 6th. 
I hope i got it to you fast enough.



Verse

(Distortion)
---------------------------------------------------------------------------------
---------------------------------------------------------------------------------
---------------------------------------------------------------------------------
-----------------------------------------------------------3----x-x-1---x-x------
---5-5-5--5----------5-5-5--5----------6-6-6--6------------3----x-x-1---x-x------
-------------0--0--0-----------0--0--0-----------0--0--0---3----x-x-1---x-x------    x2

---------------------------------------------------------------------------------
---------------------------------------------------------------------------------
---------------------------------------------------------------------------------
---------------------------------------------------------------------------------
---5-5-5--5----------5-5-5--5----------6-6-6--6----------------------------------
-------------0--0--0-----------0--0--0-----------0--0--0-------------------------

---------------------------------------------------------------------------------
---------------------------------------------------------------------------------
---------------------------------------------------------------------------------
-----------------------------------------------------------3----x-x-1---x-x------
---5-5-5--5----------5-5-5--5----------6-6-6--6------------3----x-x-1---x-x------
-------------0--0--0-----------0--0--0-----------0--0--0---3----x-x-1---x-x------


Chorus

---------------------------------------------------------------------------------
---------------------------------------------------------------------------------
---------------------------------------------------------------------------------
----0-------------------------3-----------------------11----------------------8--
----0-------------------------3-----------------------11----------------------8--
----0-------------------------3-----------------------11----------------------8--    x2

---------------------------------------------------------------------------------
---------------------------------------------------------------------------------
---------9-9-9-10-9---------9-----------------------8----------------------12----
----0-----------------10------3-----------------------11----------------------8--
----0-------------------------3-----------------------11----------------------8--
----0-------------------------3-----------------------11----------------------8--    x2


Verse


Chorus

(When you hit the last note before the bridge, let it ring for four measures.)


Bridge
[ Tab from: http://www.guitartabs.cc/tabs/p/pod/sleeping_awake_tab_ver_3.html ]
(clean with mild chorus)
---------------------------------------------------------------------------------
---------------------------------------------------------------------------------
---------------------------------------------------------------------------------
------------14---------------5-------------8-------------10----------------------
-------14------14--------5-----5--------8----8------10-----10--------------------
--12--------------12-3------------3-6----------6-8-----------10------------------    x2


Solo over bridge

---------------------------------------------------------------------------------
---------------------------------------------------------------------------------
---------------------------------------------------------------------------------
---10-----------------10---6----10---8---7---10-----------10---6---10---8---7----
-------------8------------------------------------8------------------------------
---------------------------------------------------------------------------------

---------------------------------------------------------------------------------
---------------------------------------------------------------------------------
----9-9-9-9-9------9-------------8---------------12-------10---------------------
---------------10----------------------------------------------------------------
---------------------------------------------------------------------------------
---------------------------------------------------------------------------------    x2


Chorus
(Distortion)


Ending

---------------------------------------------------------------------------------
---------------------------------------------------------------------------------
---------------------------------------------------------------------------------
---0-0---0---0-3----0----3----0-0---0---0-3----0----3----0-0---0---0-3----0----3-
---0-0---0---0-3----0----3----0-0---0---0-3----0----3----0-0---0---0-3----0----3-
---0-0---0---0-3----0----3----0-0---0---0-3----0----3----0-0---0---0-3----0----3-
PM . .   .   .                . .   .   .                . .   .   .

---------------------------------------------------------------------------------
---------------------------------------------------------------------------------
---------------------------------------------------------------------------------
---0-0---0---0-0-----------------------------------------------------------------
---0-0---0---0-0-----------------------------------------------------------------
---0-0---0---0-0-----------------------------------------------------------------
PM . .   .   . .


Well there ya go folks, the Sleeping Awake all tabbed out just for you.  Enjoy!
P.S.  If you see any mistakes or just want to chit chat, e-mail me at 
          GoodOleChris@hotmail.com

Tabbed By:  Chris "Jalapeeno" Gonzalez of Tollhouse, CA
Comments