Pod - Sleeping Awake Chords & Tabs

 

Sleeping Awake Chords & Tabs

Pod Chords & Tabs

Version: 2 Type: Tab 0 ratings
1 star 2 stars 3 stars 4 stars 5 stars
comments

Sleeping Awake Tab

   
NOTE: I DIDN'T TAB THIS IN ANY WAY SHAPE OR FORM, I SIMPLY GOT IT FROM ANOTHER SITE.

-------------------------------------------------------------------------------
			     Sleeping Awake - P.O.D.
-------------------------------------------------------------------------------

Artist: Payable On Death (P.O.D)
Song: Sleeping Awake
Albulm: Matrix Reloaded Soundtrack
Tabbed by: Zero is great man
Tuning: Droped D - DADGBe

Intro/Verse: [w/Distortion]
(Play both parts, but skip the 2nd part when he says "Won't anybody listen")
e|---------------------------------|-----------------------|
B|---------------------------------|-----------------------|
G|-7-7-7-7-----7-7-7-7-----8-8-8-8-|-----------------------|
D|-x-x-x-x-0-0-x-x-x-x-0-0-x-x-x-x-|-0-0--3-3-3-3--1-1-1-1-|
A|-5-5-5-5-0-0-5-5-5-5-0-0-6-6-6-6-|-0-0--3-3-3-3--1-1-1-1-|
D|---------0-0---------0-0---------|-0-0--3-3-3-3--1-1-1-1-|
           . .         . .         . .

Chorus: [w/Distortion]
"Dreaming of Zion awake, Sleeping awake"
"Dreaming of Zion awake, can't stop sleeping awake."
e|----------------------------------------------|
B|----------------------------------------------|
G|----------------------------------------------|
D|-0-0-0-0----3-3-3-3----11-11-11-11----8-8-8-8-|
A|-0-0-0-0----3-3-3-3----11-11-11-11----8-8-8-8-|
D|-0-0-0-0----3-3-3-3----11-11-11-11----8-8-8-8-|

Post chorus: "Do you see what I see, Can you hear what I hear"
e|---------------------------------------------|
B|---------------------------------------------|
G|-7-7-7-7---10-10-10-10----6-6-6-6----3-3-3-3-|
D|-x-x-x-x----x--x--x--x----x-x-x-x----x-x-x-x-|
A|-5-5-5-5----8--8--8--8----4-4-4-4----1-1-1-1-|
D|---------------------------------------------|

Bridge:[Clean]
(When he talks softly) "Can you see what I see..."
e|----------------------------------------------------------|
B|----------------------------------------------------------|
G|----------------------------------------------------------|
D|-------7---7----------10------------6---6----------3---3--|(x2)
A|-5-5-5---5------8-8-8----8----4-4-4---4------1-1-1---1----|
D|----------------------------------------------------------|
[ Tab from: http://www.guitartabs.cc/tabs/p/pod/sleeping_awake_tab_ver_2.html ]
Bridge Part 2: [w/Phaser]
"ah-Ah-ah..."
e|----------------------------|
B|----------------------------|
G|-/7-10-3~----/10-\6-/10\-8~-|
D|----------------------------|(x2)
A|----------------------------|
D|----------------------------|

Outro: [Heavily Distored]
e|-----------------|          |---|
B|-----------------|          |---|
G|-----------------|          |---|
D|-0-0-0---1-3h-1p-|(x4) Then |-0-|
A|-0-0-0---1-3h-1p-|          |-0-|
D|-0-0-0---1-3h-1p-|          |-0-|
   . . .  

| .  palm-mute
| /  slide up
| \  slide down
| h  hammer-on
| p  pull-off
| ~  vibrato
| +  harmonic
| x  Mute note

[Lyrics]

Reveal, to me,
The mysteries
Can you tell me what it means?
Explain, these motions and metaphors,
Unlock these secrets in me.
Describe, the visions,
The meaning is missing,
Won't anybody listen?

Define, the riddles of my mind,
Nothing is really as it seems.

Dreaming of Zion awake,
Sleeping awake,
Dreaming of Zion awake,
Can't stop sleeping awake,

Do you see what I see?
Can you hear what I hear?
Do you feel like I feel?
Do you see what I see?
Can you hear what I hear?
Do you feel like I feel?
Can't stop sleeping awake

Can you see it?
The writing,
Can you tell me what it means?
Translate the symbols; enigma,
Expressions keep pushing me,
The message slips and the meaning is missing,
Won't anybody listen?

Prophecy; interpretate the signs,
Nothing is really as it seems,

Dreaming of Zion awake,
Sleeping awake.
Dreaming of Zion awake,
Can't stop sleeping awake.

Do you see what I see?
Can you hear what I hear?
Do you feel like I feel?
Do you see what I see?
Can you hear what I hear?
Do you feel like I feel?
Can't stop sleeping awake

Do you see what I see?
Can you hear what I hear?
Do you feel like I feel?
Can you dream what I dream?

Ah - Ah -Ah, 
Ah - Ah - Ah, 

Do you see what I see?
Can you hear what I hear?
Do you feel like I feel?
Do you dream like I dream?
Can anybody see me?
Can anybody hear me?
Can anybody feel me?
Is anybody out there?

Dreaming of Zion awake,
Sleeping awake.
Dreaming of Zion awake,
Can't stop sleeping awake.

Do you see what I see?
Can you hear what I hear?
Do you feel like I feel?
Can't stop sleeping awake
Can anybody see me?
Can anybody hear me?
Can anybody feel me?
Is anybody out there?

(Note: I don't care if you copy or steal my tab, at least have the decincy to
put my name somewhere on it before you try to fix it.)
===============================================================================	
Comments