Pod - Set It Off Chords & Tabs

 

Set It Off Chords & Tabs

Pod Chords & Tabs

Version: 1 Type: Tab 0 ratings
1 star 2 stars 3 stars 4 stars 5 stars
comments

Set It Off Tab

   
P.O.D

Dropped C Tuning
d
a
f
C
G
C

Intro: (Distortion)
d----------------------------------------------------
a----------------------------------------------------
f--7-7-7-7-----7-7-7-7-------------------------------
C--7-7-7-7--0--7-7-7-7--0--3-3-3-3--3h5--2-2-2-2--2h3
G--5-5-5-5--0--5-5-5-5--0--3-3-3-3--3h5--2-2-2-2--2h3
C-----------0-----------0--3-3-3-3--3h5--2-2-2-2--2h3

Verses: (Clean with Flanger)
d-----------8-----8------
a------6-5----6-----6----
f----7----------7-----7--
C--5---------------------x2
G------------------------
C------------------------

d--------------------------
a--------6--5--5-6----5-6--
f------7-----------7------7
C----7---------------------x2
G--5-----------------------
C--------------------------

d-----------8-----8------
a------6-5----6-----6----
f----7----------7-----7--
C--5---------------------x2
G------------------------
C------------------------

d--------------------------
a--------6--5--5-6----5-6--
f------7-----------7------7
C----7---------------------x2
G--5-----------------------
[ Tab from: http://www.guitartabs.cc/tabs/p/pod/set_it_off_tab.html ]
Pre-Chorus: (Clean with Phaser)
d------------------------
a------------------------
f------------------------
C----0-------------0-----x2
G---0---0--0--0--0---0---
C--0---1--3--5--7-----7--

Chorus: (Distortion)
d------------
a------------
f------------
C--0--0-3-0--x8
G--0--0-3-0--
C--0--0-3-0--

SOLO: (Distortion)
d----------------------------------
a----------------------------------
f----------------------------------
C----------------------------------
G--5--7--8--7--3--7-8----7-8----7-8
C---------------------10-----10----

d------------------13-12--8-
a---------------------------
f---------------------------
C---------------------------
G--5--7--8--7--3------------
C---------------------------

Bridge: (Distortion)
1.
d-------------------
a-------------------
f-------------------
C--0--1-3-5-7-7-7-7-
G--0--1-3-5-7-7-7-7-
C--0--1-3-5-7-7-7-7-

2.
d------------------------
a------------------------
f-----------9-9-9--9-9-9-
C--0--1-3-5-x-x-x--x-x-x-Repeat 1&2 twice
G--0--1-3-5-7-7-7--7-7-7-
C--0--1-3-5--------------

Play Chorus clean twice

then

Repeat Chorus distortion until end
  
if you have any other request by any band E mail me at tribalwar21@aol.com

Comments