Pod - Set It Off Chords & Tabs

 

Set It Off Chords & Tabs

Pod Chords & Tabs

Version: 1 Type: Bass Tab 0 ratings
1 star 2 stars 3 stars 4 stars 5 stars
comments

Set It Off Bass Tab

   
Artist: POD
Song: Set It Off
Instrument: Bass
Album: Satellite
tabbed by: NoFace

First thing: this song is on D.G.C.E.




Intro ( keep the drum and start at): 00:04----------  X4

E/-------------------------
C/-------------------------
G/-------------------------
D/-5-5-5-5--2--5-5-5-5--2-- X2

E/-------------------------------
C/-------------------------------
G/-------------------------------
D/2-2-2-2-3-3-3-3-4-4-4-4-3-3-3-3 X1            



Verse

E/---------------------
C/---------------------
G/--------------3-3-3-3
D/-1-1-1-1-1-1---------   X8

E/----------------------
C/----------------------
G/---------6-6-6-6-6-6-6
D/3-3-3-3---------------  X8

Pre-Chrous: My Time is go... X2
[ Tab from: http://www.guitartabs.cc/tabs/p/pod/set_it_off_btab.html ]
E/--------------
C/--------------
G/--------------
D/1--2-3-4--5-5-

Chorus: Set it off... RISE X7 ( rest after the 3rd)

E/---------
C/--------
G/--------
D/-5--2-2-

Guitar Solo: X4

E/-------------------------
C/-------------------------
G/-------------------------
D/-5-5-5-5--2--5-5-5-5--2-- X2

E/-------------------------------
C/-------------------------------
G/-------------------------------
D/2-2-2-2-3-3-3-3-4-4-4-4-3-3-3-3 X1      

After Guitar solo: Do It HEAVY: X4
E/------------------
C/------------------
G/------------------
D/1--2-3-4--5-5--5-5




Order Of Song:
Intro
Verse
Pre-Chorus
Chrous
Verse
Pre-Chorus
Chorus
Guitar Solo
After Guitar Solo
Chorus
Outro( Its The Chorus)
Comments