Pod - School Of Hard Knockz Chords & Tabs

 

School Of Hard Knockz Chords & Tabs

Pod Chords & Tabs

Version: 1 Type: Tab 0 ratings
1 star 2 stars 3 stars 4 stars 5 stars
comments

School Of Hard Knockz Tab

   
band-P.O.D
song-School Of Hard Knocks
Tuning-(D,A,D,g,b,e)
tabbed-Boris Zivkovic ( bazza zika )

Intro-(clean+palm muted)

D----0-0-0-0--0-0-0-0--0-0-0--3-3-3-3--3-3-3-3--3-3-3--5-5-5-5--5-5-5-5-- go on to
A----0-0-0-0--0-0-0-0--0-0-0--3-3-3-3--3-3-3-3--3-3-3--5-5-5-5--5-5-5-5-- the next
D----0-0-0-0--0-0-0-0--0-0-0--3-3-3-3--3-3-3-3--3-3-3--5-5-5-5--5-5-5-5-- bit.
                        
D--5-5--5-5-5-5--5------7--||
A--5-5--5-5-5-5--5------10-||*last note distorted*
D--5-5--5-5-5-5--5------10-||

Chorus- *The same as the intro but it is distorted* X2

Verse-
[ Tab from: http://www.guitartabs.cc/tabs/p/pod/school_of_hard_knockz_tab.html ]
e-------------------||
b-6/5/6/5/3---------||


Riff 2-

e--------(12)--------(7)----||
b--------(12)--------(7)----||
g--------(12)--------(7)----||
D--0-0-0-------0-0-0--------||
A--0-0-0-------0-0-0--------||
D--0-0-0-------0-0-0--------||

then go on to Chorus
              Verse
              Riff 2

Bridge-

g--7-7--5-5--7-7--5-5--9-9---|  |------------------------||
D--7-7--5-5--7-7--5-5--9-9---|X3|--7-7-7--5-5-5--3-3-3---||X2
A--5-5--3-3--5-5--3-3--7-7---|  |--5-5-5--3-3-3--1-1-1---||
D----------------------------|  |------------------------||


Riff 3-

A--0------0----0-3/5-0-------|| X2   *let the 0's ring*
D--0------0------------3-5---||

Comments