Pod - School Of Hard Knocks Chords & Tabs

 

School Of Hard Knocks Chords & Tabs

Pod Chords & Tabs

Version: 1 Type: Bass Tab 0 ratings
1 star 2 stars 3 stars 4 stars 5 stars
comments

School Of Hard Knocks Bass Tab

Artist:POD
Song:School of Hard Knocks
Note Dropped D tunning
Verse
G:---------------------------
D:---------------------------
A:-----1-1-0--1-1-1----------
D:0-0-0-------------5-5-5----
[ Tab from: http://www.guitartabs.cc/tabs/p/pod/school_of_hard_knocks_btab.html ]
G:------------------------------------
D:-------3----------------------------
A:------1-0---0--1-1-1----1-----------
D:0-0-0----3-5---------1-3---5-5-5-5b-

G:-------
D:-------
A:-------
D:0-0--0-

Chorus

G:--------------------------------
D:--------------------------------
A:--------------------------------
D:0-0--0-0-7-3-3--3-3-10-5-5--5-5-
Comments