Pod - Satellite Chords & Tabs

 

Satellite Chords & Tabs

Pod Chords & Tabs

Version: 6 Type: Tab 0 ratings
1 star 2 stars 3 stars 4 stars 5 stars
comments

Satellite Tab

   
Band- P.O.D.
Album- Satellite

1.SET IT OFF

Intro-distorted
E----------------------------------------------------------------|
B----------------------------------------------------------------|
G-7-7-7-7-7-----7-7-7-7-7----------------------------------------|
D-7-7-7-7-7-----7-7-7-7-7--------3-3-3-3-5-5-5-5-2-2-2-2-3-3-3-3-|
A-5-5-5-5-5-----5-5-5-5-5--------3-3-3-3-5-5-5-5-2-2-2-2-3-3-3-3-|
D--------------0-----------0-----3-3-3-3-5-5-5-5-2-2-2-2-3-3-3-3-|

Verse Part.1 (play 4 times and) -clean, chorus, slight delay
E--------------0---------------------8-------------8--------------------|
B---------6------------------------------6------------6-----------------|
G-----7-------------------------------------7-------------7-------------|
D-5---------------------------------------------------------------------|
A-----------------------------------------------------------------------|
D-----------------------------------------------------------------------|

Verse Part.2 (play 4 times)-same effects as Part.1
E----------------------0-------------0---------------0-----------|
B--------------6------------------------6---------------6--------|
G---------7--------------------------------7---------------7-----|
D-----7----------------------------------------------------------|
A-5--------------------------------------------------------------|
D----------------------------------------------------------------|

Pre-chorus (play twice)
E-------------------------------------------------------------|
B-------------------------------------------------------------|
G-------------------------------------------------------------|
D-------0-----------------------------------0----------0------|
A----0-----------0-------0-------0-----0-----0----------0-----|
D-0----------1-------3--------5----7--------------7-----------|

Chorus(distorted)
E------------------------------------------------------------------------------------------------|
B------------------------------------------------------------------------------------------------|
G-----------------------------------------------------------------------------9--9--9------------|
D-0----1/3----0------0----1/3-----0-----0-----1/3-----0-----0------1/3---0----x--x--x------------|
A-0----1/3----0------0----1/3-----0-----0-----1/3-----0-----0------1/3---0----7--7--7------------|
D-0----1/3----0------0----1/3-----0-----0-----1/3-----0-----0------1/3---0-----------------------|


Solo(distorted)
E-----------------------------------------------------------------------------------------|
B-----------------------------------------------------------------------------------------|
G-----------------------------------------------------------------------------------------|
D-----------------------------------------------------------------------------------------|
A-5-5-5-5-5-5v--5-5-5-5-5-5v---7-8-7/8/7-3----7/8-----7/8-----7/8-5v--7-8-7/8/7-3-------0-|
D-------------------------------------------------10------10------------------------------|

E--13b---12b-12b-----------------|
B--16b---15b-15b--------13b------|
G---------------------------15b--|
D--------------------------------|
A--------------------------------|
D--------------------------------|

Bridge thingy-distorted
E-----------------------------------------------------------------------------------------------|
B-----------------------------------------------------------------------------------------------|
G--------------------------------------------------9-9-9---9-9-9--------------------------------|
D-0---1---3---5---7-7-7---7-7-7----0---1---3---5---x-x-x---x-x-x--------------------------------|
A-0---1---3---5---7-7-7---7-7-7----0---1---3---5---7-7-7---7-7-7--------------------------------|
D-0---1---3---5---7-7-7---7-7-7----0---1---3---5------------------------------------------------|

After solo/bridge thingy (clean)
E--------------------------------------------------------------------------------------------------|
B--------------------------------------------------------------------------------------------------|
G--------------------------------------------------------------------------------------------------|
D--------------------------------------------------------------------------------------------------|
A-0---1/3---0---0---1/3---0---0---1/3---0----0---1/3---0-------------------------------------------|
D-0---1/3---0---0---1/3---0---0---1/3---0----0---1/3---0-------------------------------------------|

2.ALIVE

Intro/Chorus

|----------------------------|-------------------|----------------------|
|----------------------------|-------------------|----------------------|
|----------------------------|-------------------|----------------------|
|-2-2-2-0-2------2------0----|-0-2-2-2-0-2-4-0---|-2---4--5--0----------|
|-2-2-2-0-2--------2------0--|-0-2-2-2-0-2-4-0---|-2---4--5--0----------|
|-2-2-2-0-2---2----4--0---2--|-0-2-2-2-0-2-4-0---|-2---4--5--0----------|

Violin bit.

|---------------------------------------------------------------|
|----10----8----7---------10-----8------------------------------|
|--------------------7---------------7----9---------------------|
|-----7----5----4----------7-----5------------------------------|
|--------------------5---------------5----7---------------------|
|---------------------------------------------------------------|

Verse

|----------------------------------------------------------------------------------------|
|----------------------------------------------------------------------------------------|
|----------------------------------------------------------------------------------------|
|-----5------5------5------4-----4---5p4-2h4-----4---5-4---2h4----0---12--12/14-14/16----|
|---5---5--5---5--5------0---0-5---5-----------5---5-----5-------0--0--------------------|
|-0---------------------0---------------------0-----------------0------------------------|


    repeat 1 time then play this ending---------------------------------------------|
|---------------------------------------------------|-------------------------------|
|---------------------------------------------------|-------------------------------|
|---------------------------------------------------|-------------------------------|
|--4------4-----5----4-----4---5--7---5---4--5--4-2-|----5--4----5---4---5---4------|
|---------------------------------------------------|-------------------------------|
|---------------------------------------------------|-------------------------------|


Heavy bit


|---------------------------------------------------------------------|
|---------------------------------------------------------------------|
|---------------------------------------------------------------------|
|-0-2--0-2--0-2--0-2--0-3-3-3-3-3-3-3-3-3-3-3-3-3-3-3-3---------------|
|-0-2--0-2--0-2--0-2--0-3-3-3-3-3-3-3-3-3-3-3-3-3-3-3-3---------------|
|-0-2--0-2--0-2--0-2--0-3-3-3-3-3-3-3-3-3-3-3-3-3-3-3-3---------------|
pm                      . . . . . . . . . . . . . . . .

end bit.

|----------------------|
|----------------------|
|----------------------|
|--2---4----5---2------|
|--2---4----5---2------|
|--2---4----5---2------|

3.BOOM

-|----------------------------------------------------------------------------|
-|----------------------------------------------------------------------------|
-|----------------------------------------------------------------------------|
-|----------------------------------------------------------------------------|
-|----------------------------------------------------------------------------|
-|22222-000-22222-000-5555555-7777777-----------------------------------------|
  Intro

-|----------------------------------------------------------------------------|
-|----------------------------------------------------------------------------|
-|----------------------------------------------------------------------------|
-|22222-000-22222-000-5555555-7777777-----------------------------------------|
-|22222-000-22222-000-5555555-7777777-----------------------------------------|
-|22222-000-22222-000-5555555-7777777-----------------------------------------|
  Verse

-|----------------------------------------------------------------------------|
-|----------------------------------------------------------------------------|
-|----------------------------------------------------------------------------|
-|----------------------------------------------------------------------------|
-|----------------------------------------------------------------------------|
-|22222-000-22222-000-5555555-7777777-----------------------------------------|
 Pre-chorus

-|------------------------------------------------------------------------|
-|------------------------------------------------------------------------|
-|------------------------------------------------------------------------|
-|2-2-----2-2----777770-777770--------------------------------------------|
-|2-2-5---2-2-5--777770-777770--------------------------------------------|
-|2-2-----2-2----777770-777770--------------------------------------------|
 Chorus

-|----------------------------------------------------------------------------|
-|----------------------------------------------------------------------------|
-|----------------------------------------------------------------------------|
-|22222-000-22222-000-5555555-7777777-----------------------------------------|
-|22222-000-22222-000-5555555-7777777-----------------------------------------|
-|22222-000-22222-000-5555555-7777777-----------------------------------------|
   p.m.

-|----------------------------------------------------------------------------|
-|----------------------------------------------------------------------------|
-|----------------------------------------------------------------------------|
-|----------------------------------------------------------------------------|
-|----------------------------------------------------------------------------|
-|22222-000-22222-000-5555555-7777777-----------------------------------------|
  Pre-Chorus

-|----------------------------------------------------------------------------|
-|----------------------------------------------------------------------------|
-|----------------------------------------------------------------------------|
-|2-2x-----2-2x----777770-777770----------------------------------------------|
-|2-2x-5---2-2x-5--777770-777770----------------------------------------------|
-|2-2x-----2-2x----777770-777770----------------------------------------------|
  Chorus

-|----------------------------------------------------------------------------|
-|----------------------------------------------------------------------------|
-|----------------------------------------------------------------------------|
-|----------------------------------------------------------------------------|
-|0--2--7-------0--2--7-------0--2--7-------0--2--7--7h9----------------------|
-|----------------------------------------------------------------------------|


-|----------------------------------------------------------------------------|
-|----------------------------------------------------------------------------|
-|----------------------------------------------------------------------------|
-|2------------0--------------------------------------------------------------|
-|2------------0--------------------------------------------------------------|
-|2------------0--------------------------------------------------------------|


-|----------------------------------------------------------------------------|
-|----------------------------------------------------------------------------|
-|----------------------------------------------------------------------------|
-|2-2----2-2---777770-777770--------------------------------------------------|
-|2-2----2-2---777770-777770--------------------------------------------------|
-|2-2----2-2---777770-777770--------------------------------------------------|


4.YOUTH OF THE NATION

INTRO/CHORUS:
|--------------------------------------------------------------------------|
|--------------------------------------------------------------------------|
|--------------------------------------------------------------------------|
|-------------5-----5-----5-----5--5p3-------------------------------------|
|--------------------------------------------------------------------------|
|-0~-------3-----3-----3-----3---------------------------------------------|

VERSE:
|--------------------------------------------------------------------------|
|--------------------------------------------------------------------------|
|--------------------------------------------------------------------------|
|------7------5p3------3p5-3----X4-----------------------------------------|
|--------------------------------------------------------------------------|
|-0------------------------------------------------------------------------|

|--------------------------------------------------------------------------|
|-------15----17-17-17-17-17-18-18-18------------15--------5---------------|
|----14--------------------------------------14--------5-5------X2---------|
|-12-------------------------------------12--------------------------------|
|--------------------------------------------------------------------------|
|--------------------------------------------------------------------------|

SOLO:
|--------------------------------------------------------------------------|
|--------------------------------------------------------------------------|
|-7----9--10---9---10----12----12/10/9----9h10p9/7\9----7/5----------------|
|--------------------------------------------------------------------------|
|--------------------------------------------------------------------------|
|--------------------------------------------------------------------------|

5.CELESTIAL

dropped a full step (d,a,F,C,G,d,)

d:-----5-----5-----3-----3--------8-----8--------7----7-----|
A:--------3-----3-----3-----3--------6-----6----------------|
F:--2--------------------------5--------------5----5-----5--|
C:----------------------------------------------------------|
G:----------------------------------------------------------|
D:----------------------------------------------------------|

6.SATELLITE

Intro:
------------------------------------------------------------------------------|
------------------------------------------------------------------------------|
-----777-----777---77-----444-----444---44-----444----444---44-----4444444----|
-----999-----999---99-----555-----555---55-----555----555---55-----5555555----|
-777-----777-----77----333-----333----33----000----000----00----333-----------|
------------------------------------------------------------------------------|
 pm.     ...     ..    ...     ...    ..    ...    ...    ..    ...

First Chorus:
------------------------------------------------------------------------------|
------------------------------------------------------------------------------|
-99-99-99-99-9--55555-----7777-----99-99-99-99-9------------------------------|
-99-99-99-99-9--55555-7777----777--99-99-99-99-9------------------------------|
-77-77-77-77-7--53333--------------77-77-77-77-7-777-1312h13p12/9-------------|
------------------------------------------------------------------------------|
                      ***********                pm.
Second Chorus:
------------------------------------------------------------------------------|
------------------------------------------------------------------------------|
-99-99-99-99-9--55555-----7777-----99-99-99-99-9------------------------------|
-99-99-99-99-9--55555-7777----777--99-99-99-99-9------------------------------|
-77-77-77-77-7--53333--------------77-77-77-77-7-777-1312h13p12/9-------------|
------------------------------------------------------------------------------|
                      ***********                pm.

------------------------------------------------------------------------------|
------------------------------------------------------------------------------|
-99-99-99-99-9--55555-----7777-----99-99-99-99-9-----444-----444--------------|
-99-99-99-99-9--55555-7777----777--99-99-99-99-9-----555-----555--------------|
-77-77-77-77-7--53333--------------77-77-77-77-7--333-----333-----------------|
------------------------------------------------------------------------------|
                      ***********                 pm.     ...

Other Choruses:
------------------------------------------------------------------------------|
------------------------------------------------------------------------------|
-99-99-99-99-9--55555-----7777-----99-99-99-99-9-----444-----444--------------|
-99-99-99-99-9--55555-7777----777--99-99-99-99-9-----555-----555--------------|
-77-77-77-77-7--53333--------------77-77-77-77-7--333-----333-----------------|
------------------------------------------------------------------------------|
                      ***********                 pm.     ...

Verse:
------------------------------------------------------------------------------|
------------------------------------------------------------------------------|
----777----777---77-----444----444---44-----444----444---44-----444----444----|
----999----999---99-----555----555---55-----555----555---55-----555----555----|
-777----777----77----333----333----33----000----000----00----333----333-------|
------------------------------------------------------------------------------|
 pm.    ...    ..    ...    ...   ..     ...    ...    ..    ...    ...
[ Tab from: http://www.guitartabs.cc/tabs/p/pod/satellite_tab_ver_6.html ]
------------------------------------------------------------------------------|
------------------------------------------------------------------------------|
---44-------------------------------------------------------------------------|
---55-------------------------------------------------------------------------|
-33---------------------------------------------------------------------------|
------------------------------------------------------------------------------|
 ..

Solo:
------------------------------------------------------------------------------|
------------------------------------------------------------------------------|
-9-99-9/11-11-11/12-12-12/14-14--16-16/17-16/17-16/17-16/17-------------------|
------------------------------------------------------------------------------|x2
-7-77-7/9--9--9/10--10-10/12-12--14-14/15-14/15-14/15-14/15-------------------|
------------------------------------------------------------------------------|

------------------------------------------------------------------------------|
------------------------------------------------------------------------------|
-19-1919-19/17-17-17/16-16-16/14-14--16-16/17-16/17-16/17-16/17---------------|
------------------------------------------------------------------------------|x2
-17-1717-17/15-15-15/14-14-14/12-12--14-14/15-14/15-14/15-14/15---------------|
------------------------------------------------------------------------------|
(this last part is the only one I didnt get a clear look at Marcos' fingering on)

End:
------------------------------------------------------------------------------|
------------------------------------------------------------------------------|
---7--------------------------------------------------------------------------|
--9---------------------------------------------------------------------------|
-7----------------------------------------------------------------------------|
------------------------------------------------------------------------------|
(run your pick down those strings, dont pick individually)

7.RIDICULOUS

Intro

----------------|-----------------|
----------------|-----------------|
----------------|4444444444444444-|
----------------|-gradual-bend----|
2222222222222222|-and-release-----|
----------------|-----------------|

I heard Marcos Curiel used some type of synth to create that wierd
wah-sounding effect for some of the parts in this song.

Verse

-2---2---2---2--|-2---2---2------|
-3---3---3---3--|-3---3---3--2---|
----------------|------------2---|
----------------|----------------|
----------------|----------------|
----------------|----------------|

Verse Fill (play this throughout the verse)

----------------|----------------|
----------------|----------------|
----------------|----------------| 2.5x
----------------|----------------|
2---------------|2---------------|
----------------|----------------|

Do this 2.5 times and then play this Verse Riff


----------------|----------------|----------------|
----------------|----------------|------------5---|
----------------|----------------|---------4------|
----------------|4---------------|4----4----------|
2---------------|----------------|----------------|
----------------|----------------|----------------|

Chorus

-2--------------|-x--------------|
-3--------------|-x--------------|
-4--------------|-x--------------|
-4--------------|-x--------------|
----------------|----------------|
----------------|----------------|

Use delay set for eighth notes.  After you strike the muted strings the first
time in the second chorus, there is a pickslide.  Don't forget to play it.


Solo

5555555555555555|5555555555555555|-5-4-----4-2----|-2-0-----3-2----|
----------------|----------------|----------------|----------------|
Gradual-bend-up-|-Gradual-Release|----------------|----------------| 2x
--1-Step--------|--back-down-----|----------------|----------------|
----------------|----------------|----------------|----------------|
----------------|----------------|----------------|----------------|

Interlude

----------------|----------------|
----------------|----------------|
------4-4-4-4---|-----4-4-4-4-4--|
----------------|----------------|  8x
---2------------|--2-------------|
----------------|----------------|

Then Later

----------------|----------------|----------------|----------------|
----------------|----------------|-Vol.-Swell-----|----------------|
----------------|----------------|----------------|----------------|
----------------|----------------|----------------|----------------|
4---------------|----------------|4444444444444444|4---------------|
----------------|----------------|----------------|----------------|


The End is slightly different

-2---2---2---2--|-2---2---2------|
-3---3---3---3--|-3---3---3------|
----------------|----------------|
----------------|-------------4--|
----------------|----------------|
----------------|----------------|

8.THE MESSENJAH

Intro-(clean)
E---------------------------------------------------------------|
B-8-8-8-8-8-8-/-3-3-3-3-3-3-/-8-8-8-8-8-8-/-10-10-10-10-10-10---|
G-9-9-9-9-9-9-/-4-4-4-4-4-4-/-9-9-9-9-9-9-/-11-11-11-11-11-11---|
D---------------------------------------------------------------|
A---------------------------------------------------------------|
D---------------------------------------------------------------|


Intro 2/ Chorus (distortion)
E---------------------------------------------------------------|
B---------------------------------------------------------------|
G---------------------------------------------------------------|
D-------------2-2-2-2-2-2-5-5-5-5-5-5-0-0-0-0-0-0-0-0-0-0-0-0---|
A-------------2-2-2-2-2-2-5-5-5-5-5-5-0-0-0-0-0-0-0-0-0-0-0-0---|
D-0-2-4-0-----2-2-2-2-2-2-5-5-5-5-5-5-0-0-0-0-0-0-0-0-0-0-0-0---|


Intro 2 ends on (distortion)
E-------------|
B-------------|
G-------------|
D-----------2-|
A-----------2-|
D-0-2-4-0---2-|


Verse (distortion)
E-12---13--------12-------|
B------------13-------12--|
G-------------------------|
D-------------------------|
A-------------------------|
D-------------------------|


Pre Chorus (distortion)
E--------------------------------------------------|
B--------------------------------------------------|
G--------------------------------------------------|
D-2-2-5-4-----5-5-5-4-----2-2-5-4-----7-7-5-4------|
A-2-2-----5-3-5-5-----5-2-2-2-----5-3-7-7-----5-2--|
D-2-2---------5-5---------2-2---------7-7----------|


Interlude (distortion)
E-------------------------------------------------|
B-------------------------------------------------|
G-------------------------------------------------|
D-9---2-2---9---2-2---9---2-2---------------------|
A-7---2-2---7---2-2---7---2-2---10-9-10---7---9---|
D-------------------------------------------------|

9.GUITARRAS DE AMOR

Don't Know

10.ANYTHING RIGHT

Don't Know

11.GHETTO

Don't Know

12.MASTERPIECE CONSPIRACY

|---------------------------------------------------|
|--------------------------15-----------------------|
|---------------------------------------------------|
|-2-----------0-------------------------------------|
|-2-----------0-------------------------------------|
|-2-----------0-------------------------------------|

Chorus

I think the 5's are harmonics but i aint sure,
but you dont have to play it this way so dont
worry.
|---------------------------------------------------|
|---------------------------------------------------|
|---------------------------------------------------|
|-2-2-2-12----2-2-2-12---2-2-2-12---5-5-5-5-5-5-5---|
|-2-2-2-12----2-2-2-12---2-2-2-12-------------------|
|-2-2-2-12----2-2-2-12---2-2-2-12-------------------|
pm. . .       . . .      . . .  . . . . . . .

Verse
|---------------------------------------------------|
|--------------------------15-----------------------|
|---------------------------------------------------|
|-2-----------0-------------------------------------|
|-2-----------0-------------------------------------|
|-2-----------0-------------------------------------|


Chorus
|---------------------------------------------------|
|---------------------------------------------------|
|---------------------------------------------------|
|-2-2-2-12----2-2-2-12---2-2-2-12---5-5-5-5-5-5-5---|
|-2-2-2-12----2-2-2-12---2-2-2-12-------------------|
|-2-2-2-12----2-2-2-12---2-2-2-12-------------------|
pm. . .       . . .      . . .  . . . . . . .


Interlude (once again with the delay).

       x2        then
|------------------------|-----------|
|--17\----20\---22\--19\-|-----------|
|------------------------|-----------|
|------------------------|----2------|
|------------------------|----2------|
|------------------------|----2------|

|---------------------------------------------------|
|---------------------------------------------------|
|--------------------7-7----------------------------|
|-2--0-0-0--5\--0-0--7-7-0--------------------------|
|-2--0-0-0--5\--0-0--5-5-0--------------------------|
|-2--0-0-0--5\--0-0------0--------------------------|


You're such a backstabber
|---------------------------------------------------|
|---------------------------------------------------|
|-------------7-7-7-7-7-7-7-------------------------|
|-2-2-0-2-0-2-7-7-7-7-7-7-7-0-----------------------|
|-2-2-0-2-0-2-5-5-5-5-5-5-5-0-----------------------|
|-2-2-0-2-0-2---------------0-----------------------|

13.WITHOUT JAH,NOTHIN'

Don't Know

14.THINKING ABOUT FOREVER

Intro: (I didn't put how many times you strum the 3 chords at the beginning)
(and // just means slide)

D|--2---2---3-----3h5-5-5//7-7-7//9-9-9//10-10-10-|--2---2----2---2----|
A|--2---2---3-----0-----0------0------0---------0-|--2---2----2---2----|
F|--4---4---4-------------------------------------|--4---4----4---4----|
C|--4---4---5-------------------------------------|--4-4-4----4-4-4----|
G|--2---0---x-------------------------------------|--2---4~~--0---4~~--|
C|----------5-------------------------------------|--------------------|

D|--3--3---------|
A|--4--4---------|
F|--4--4---------|
C|--5--4---------|
G|--x--5---------|
C|--5-----5///---|

Verse: x2
D|----------------------------------------------------------------------|
A|----------------------------------------------------------------------|
F|-----4-----4--------------------------------4-----4-----------------0-|
C|---4-----4---4p2p0---------0-----0--------4-----4---4p2p0---------0---|
G|-2-----0----------4p2p0--0---0-0---0-1--2-----0----------4p2p0--0-----|
C|-----------------------5--------------------------------------5-------|

Chorus:
play the first part of the intro (up to the line) then play the chords
again, and then slide down on the 5th fret of the low C string.

Verse
Chorus: same as before but play the riff* after the chords both times.

Solo:
D|---------------------------------------------------------------------|
A|-------------------7-5---5-7-7-8-8-8-1010p8p7h8--8p7p5h7--5---5-----|
F|-------------4-6-7-----7-------------------------------------7-------|
C|-4-5---4h5h7---------------------------------------------------------|
G|---------------------------------------------------------------------|
C|---------------------------------------------------------------------|

D|--------------------------------------------------------------|
A|----------------------------------------------5h7-7h8-7--8-7--|
F|-7-6-7-6-7-6-7//9-7h9p7p6--9-7h9p7p6--6h7-7h9-----------------|
C|--------------------------------------------------------------|
G|--------------------------------------------------------------|
C|--------------------------------------------------------------|


D|---------------------------------------------------------------------|
A|-----------5-7--5----------------------------------------------------|
F|-----4-6-7--------7--6-4-6-6b7b6--4-4-6-6b7b6------------------------|
C|-5-7-----------------------------------------------------------------|
G|---------------------------------------------------------------------|
C|---------------------------------------------------------------------|

Chorus till end

*The other riff that they sometimes use after the chords in the chorus is:
D|--3h5-5-5p3-3-3h5-5-5p3-3-3---|
A|--0-----0-----0-----0-----0---|
F|------------------------------|
C|------------------------------|
G|------------------------------|
C|------------------------------|


SOLO

!!Tune all strings down one step!!
d - G - C - F - a - d

d-------------------------------------------------------------------|
a-------------------------------------------------------------------|
f-------------------------11-9----9--11-11/12-12-12h13--12h13h12-12-|
C----------------9h11h12-------12-----------------------------------|
G--9-10--9h10h12----------------------------------------------------|
D-------------------------------------------------------------------|

d----------------------------------------------------------------------|
a----------------------------------------------------------------------|
f--11------------------------------------------------------------------|
C------14-12-14-12--11h12-11h12--12/13-13--12h13p12-11--13-12h13p12-11-|
G----------------------------------------------------------------------|
D----------------------------------------------------------------------|

d--------------------------------------------------------------------|
a--------------------------------------------------------------------|
f-------------------------------------------------------11-9---------|
C--11-11/12-12/14-14/15-15-16-15h16p16----------9-11-12------12------|
G---------------------------------------9-10-12----------------------|
D--------------------------------------------------------------------|

d---------------------------------------|
a---------------------------------------|
f---------------------------------------|
C--11-9h11--11h12p11--9-9h11--11h12p11--|
G---------------------------------------|
D---------------------------------------|

15.PORTRAIT

|----0------0-----0----0---0---0---0---0---0---0------------------|
|--12-12--10-10--8-8--7-7-7-7-7-7-8-8-3-3-7-7-5-5-----------------|
|-----------------------------------------------------------------|
|-----------------------------------------------------------------|
|-----------------------------------------------------------------|
|-----------------------------------------------------------------|

|------------------------------------------------------|
|------------------------------------------------------|
|------------------------------------------------------|
|---2-2-2-0-2/5--2-2-2-0-2/5--2-2-2-0-2/5--------------|
|---2-2-2-0-2/5--2-2-2-0-2/5--2-2-2-0-2/5--------------|
|---2-2-2-0-2/5--2-2-2-0-2/5--2-2-2-0-2/5--------------|

|----------------|
|----------------|
|----------------|
|----2-2-2-0-----|
|----2-2-2-0-----|
|----2-2-2-0-----|

|----------------------------------------------------------|
|----------------------------------------------------------|
|----------------------------------------------------------|
|---2-2-2-0-2/5--2-2-2-0-2/5--2-2-2-0-2/5--2-2-2-0-2/5-----|
|---2-2-2-0-2/5--2-2-2-0-2/5--2-2-2-0-2/5--2-2-2-0-2/5-----|
|---2-2-2-0-2/5--2-2-2-0-2/5--2-2-2-0-2/5--2-2-2-0-2/5-----|
|----------------------------------------------------------|
|----------------------------------------------------------|
|------------------7~--------------------------------------|
|---2~-------------7~--7--4-4h5h4h5h4h5--------------------|
|---2~-------------5~--------------------------------------|
|---2~-----------------------------------------------------|

|---------------------------------------------------------------------------|
|---------------------------------------------------------------------------|
|---------------------------------------------------------------------------|
|---------------------------------------------------------------------------|
|---9-10-12-9-10-12-9-10-12-9-10-12-9-10-12--10-9-10-7-9-10-9-10-12--10h9---|Play alot
|---------------------------------------------------------------------------|

|-----------------------------------------------------------------------------|
|-----------------------------------------------------------------------------|
|-----------------------------------------------------------------------------|
|--9-10-12-10--9-7-9-10-9-7---------------------------------------------------|
|-------------------------------7-7-7-5-7--7-7-9-5-5-5-9-5-5-5-9-5-5-5-10~----|
|-----------------------------------------------------------------------------|

|---------------------------------------------|
|---------------------------------------------|
|------------------7~-------------------------|
|---2~-------------7~--7--4-4h5h4h5h4h5-------|
|---2~-------------5~-------------------------|
|---2~----------------------------------------|

|---------------------------------------------------------------------------|
|---17~--17^-15-12-13---12-10-12-10-8--7-8--7-7-8--10--7-8--5-7~------------|
|---------------------------------------------------------------------------|
|---------------------------------------------------------------------------|
|---------------------------------------------------------------------------|
|---------------------------------------------------------------------------|

|---------------------------------------------------------|
|---------------------------------------------------------|
|-----------------------------7~----9-7-4-----------------|
|---2-2-2-0-2--x-2-x-2-x-2----7~---------4h5h4h0----------|
|---2-2-2-0-2--x-2-x-2-x-2----5~--------------------------|
|---2-2-2-0-2--x-2-x-2-x-2--------------------------------|

|------------------------------------------------------------|
|--12-12--10-10--8-8--7--7-7-7--8-8-------7-7--5--5-5-5------|
|------------------------------------7-7---------------------|
|------------------------------------------------------------|
|------------------------------------------------------------|
|------------------------------------------------------------|

|------------------------------|
|------------------------------|
|------------------------------|
|---2-2-2-0-2--x-4-x-4-x-2-----|x1
|---2-2-2-0-2--x-4-x-4-x-2-----|
|---2-2-2-0-2--x-4-x-4-x-2-----|
Comments