Pod - Satellite Chords & Tabs

 

Satellite Chords & Tabs

Pod Chords & Tabs

Version: 5 Type: Tab 0 ratings
1 star 2 stars 3 stars 4 stars 5 stars
comments

Satellite Tab

   
Tabbed by: Ward
Email: WArdI4@aol.com

Tuning:drop 1 step down from low to high D-G-C-F-A-D
    
 alright guys this is my first tab but im sure this is a 100% correct, i triple checked it,
it's really easy to learn if you know the song,so here it is enjoy.... oh and don't forget to
rate this,im sure you'll like.

  Intro:
     Em7                                       Cmaj7
D|---------------------|---------------------|--------------------|--------------------|
A|---------------------|---------------------|--------------------|--------------------|
F|---------7-7-7-------|----7-7-7-------7----|--------4-4-4-------|----4-4-4-------4-4-|
C|--9-9-9--9-9-9---9-9-|-9--9-9-9--9-9--9----|-5-5-5--5-5-5---5-5-|-5--5-5-5--5-5--5-5-|
G|--7-7-7----------7-7-|-7---------7-7-----0-|-3-3-3----------3-3-|-3---------3-3------|
D|---------------------|---------------------|--------------------|--------------------|
   P.M.................................................................................
    
   Am7add9                                     Cmaj7
D|---------------------|---------------------|-------------------|------------------|
A|---------------------|---------------------|-------------------|------------------|
F|---------4-4-4-------|----4-4-4-------4----|--------4-4-4---4--|-4-4-4-4-4-4-4-4--|
C|--2-2-2--5-5-5---2-2-|-2--5-5-5--2-2--5--0-|-5-5-5--5-5-5---5--|-5-5-5-5-5-5-5-5--|
G|--0-0-0----------0-0-|-0---------0-0-------|-3-3-3----------3--|-3-3-3-3-3-3-3-3--|
D|---------------------|---------------------|-------------------|------------------|
   P.M...............................................
   
  Chorus I:
    Em7                                        C5 D5
D|------------------------|------------------|-------------------|------------------|
A|------------------------|------------------|-------------------|------------------|
F|------------------------|------------------|-------------------|---7-7-7-7--------| 
C|--9-9-9-7--9--7-9-------|--7-9---9---9--5--|--5/7-7-7-7--7-7-7-|-7----------7-7---|
G|--7-7-7-7--7--7-7-------|--7-7---7---7--3--|--3/5-5-5-5--------|----------------x-|
D|-----------0------------|--------0---------|-------------------|----------------x-|
   Sat_el__lite.____________________

   G5 A5                              C5                              D5     Cmaj7
D|-------------------|-----------------|-----------------------------------|----------7-7---------|
A|-------------------|-----------------|-----------------------------------|--------8-8-8--8-8----|
F|-------------------|-----------------|-----------------------------------|--------9------9-9--7-|
C|-------------------|-----------------|-----------------------------------|----------------------|
G|-5/7--7-7-7-7-5-7--|--7-7-7-5-7-7/10-|-10-10-10--12-----10h12p10\9--12---|-10-10----------------|
D|-3/5--5-5-5-5-5-5--|--5-5-5-5-5-5/8--|--8--8--8---------------------10---|-8--8-----------------|
  Sat_el__lite._____________________
  
  Verse:                                               
   Em7                                                  Cmaj7
D|--------------------------|------------------------|---------------------|----------------------|
A|--------------------------|------------------------|---------------------|----------------------|
F|----------------7-7-7-----|-----7-7-7-------7------|---------4-4-4-------|-----4-4-4--------4-4-|
C|----------9-9-9-9-9-9-9-9-|--9--9-9-9--9-9--9------|--5-5-5--5-5-5--5-5--|--5--5-5-5--5-5---5-5-|
G|----------7-7-7-------7-7-|--7---------7-7------0--|--3-3-3---------3-3--|--3---------3-3-------|
D|--------------------------|------------------------|---------------------|----------------------|
  i wonder..................  from there to here.      no obstruction,.....      all in this .....
  
   am7add9                                          Cmaj7
D|-----------------------|-----------------------|*[---------------------|--------------------------]
A|-----------------------|-----------------------|*[---------------------|--------------------------]
F|----------4-4-4--------|-----4-4-4---------4-4-|*[---------4-4-4-------|-----4-4-4-------4/-------]
C|----------5-5-5--------|-----5-5-5---------5-5-|*[--5-5-5--5-5-5--5-5--|--5--5-5-5-------5/-------]
G|-0--0--0---------0--0--|--0----------0--0------|*[--3-3-3---------3-3--|--3---------3-3-----------]
D|-----------------------|-----------------------|*[---------------------|--------------------------]
    no fear; less tears       only time.......      i fail to inhale     your love constricts.....
  
  ::: YOU PLAY THE RIFF VERSE 3 TIMES  EXEPT THE LAST PART *. YOU PLAY THIS ON THE LAST 3RD RIFF:::
    
    Cmaj7(add9) Cmaj7
D|---------------------|------------------------------------------------------|
A|---------------------|------------------------------------------------------|
F|--4-4-5--4-4-4-4-4---|-4-4-4-4-4-4-4----------------------------------------|
C|--3-3-3--5-5-5-5-5---|-5-5-5-5-5-5-5----------------------------------------|
G|--3-3-3--3-3-3-3-3---|-3-3-3-3-3-3-3--0-------------------------------------|
D|---------------------|------------------------------------------------------|
   never take your eyes of me..........
[ Tab from: http://www.guitartabs.cc/tabs/p/pod/satellite_tab_ver_5.html ]
  bridge:  
    Em7                                        C5 D5
D|------------------------|------------------|-------------------|------------------|
A|------------------------|------------------|-------------------|------------------|
F|------------------------|------------------|-------------------|---7-7-7-7--------| 
C|--9-9-9-7--9--7-9-------|--7-9---9---9--5--|--5/7-7-7-7--7-7-7-|-7----------7-7---|
G|--7-7-7-7--7--7-7-------|--7-7---7---7--3--|--3/5-5-5-5--------|----------------x-|
D|-----------0------------|--------0---------|-------------------|----------------x-|
    as i look into the sky today .................................................. 

  G5 A5                              C5                              D5     Cmaj7
D|-------------------|-----------------|-----------------------------------|----------7-7---------|
A|-------------------|-----------------|-----------------------------------|--------8-8-8--8-8----|
F|-------------------|-----------------|-----------------------------------|--------9------9-9--7-|
C|-------------------|-----------------|-----------------------------------|----------------------|
G|-5/7--7-7-7-7-5-7--|--7-7-7-5-7-7/10-|-10-10-10--12-----10h12p10\9--12---|-10-10----------------|
D|-3/5--5-5-5-5-5-5--|--5-5-5-5-5-5/8--|--8--8--8---------------------10---|-8--8-----------------|
   well, i can..........................................................

  chorus II:
   E5       D5 E5                              C5 D5     C5
D|----------------------|---------------------|---------------------|---------------------|
A|----------------------|---------------------|---------------------|---------------------|
F|----------------------|------------------0--|---------------------|---7-7-7-7-----------|
C|-9-9-9--0--7/9--9--0--|-7/9--9-7-9-9-9---0--|-5/7--7-7--5--7-7-7--|-7----------7-7------|
G|-7-7-7--0--5/7--7--0--|-5/7--7-5-7-7-7---0--|-3/5--5-5--3---------|------------------x--|
D|----------------------|---------------------|---------------------|------------------x--|
  sa___tel_______lite.....................................................

  G5 A5     G5 A5       G5 A5     G5 A5        Cmaj7
D|---------------------|---------------------|----------------------------|-----12-12-12-12---|
A|---------------------|---------------------|-----------12-12-12---------|-----12-12-12-12---|
F|---------------------|---------------------|-----------12-12-12---------|-----12-12-12-12---|
C|---------------------|---------------------|-----------12-12-12---------|-------------------|
G|-5/7--7-7--5/7--7-7--|-5/7--7-7--5/7-7-7/--|-10-10-10------------10-10--|-10----------------|
D|-3/5--5-5--3/5--5-5--|-3/5--5-5--3/5-5-5/--|--8--8--8-------------8--8--|--8----------------|
                                              P.M.......          P.M..........

  ::: DO VERSE AGAIN :::

  interlude I: 
   Cmaj7                                   Em7
D|------------------|--------------------| |---------------------------|
A|------------------|--------------------| |---------------------------|
F|-4-4-4-4-4-4-4-4--|-4-4-4-4-4-4---4-4--| |-9--9-9---9/11---11-11/12--|
C|-3-3-3-5-5-5-5-5--|-5-5-5-5-5-5---5-5--| |-x--x-x---x------x--x------|
G|-3-3-3-3-3-3-3-3--|-3-3-3-3-3-3---3-3--| |-7--7-7---7/9----9--9/9----|
D|------------------|--------------------| |---------------------------|
  P.M....................................

                               Cmaj7
D|---------------------------|-----------------------------|---------------------------|
A|---------------------------|-----------------------------|---------------------------|
F|-12--12/14--14--14/16--16--|-16/17--16/17--16/17--16/17--|-16/17--16/17--16/17--16\--|
C|-x----x-----x----x------x--|-x-------x------x------x-----|--x------x------x------x---|2x
G|-10--10/12--12--12/16--14--|-14/15--14/15--14/15--14/15--|-14/15--14/15--14/15--14\--|
D|---------------------------|-----------------------------|---------------------------|

  interlude II:   
    Em7
D|-----------------------------------|------------------------------|
A|-----------------------------------|------------------------------|
F|-16---16--16---16\14---14---14\12--|-12--12---14--14--14--16--16--|
C|--x----x---x----x-------x----x-----|--x---x----x---x---x---x---x--|
G|-14---14--14---14\12---12---12\10--|-10--10---12--12--12--14--14--|
D|-----------------------------------|------------------------------|
   satellite,                          satellite.               my  

   Cmaj7
D|-----------------------------|---------------------------|
A|-----------------------------|---------------------------|
F|-16/17--16/17--16/17--16/17--|-16/17--16/17--16/17--16\--|
C|-x-------x------x------x-----|--x------x------x------x---|2x
G|-14/15--14/15--14/15--14/15--|-14/15--14/15--14/15--14\--|
D|-----------------------------|---------------------------|    
   guiding bright                 shining bright

  ::: DO CHORUS THEN VERSE :::
  
  outro: 
   Cmaj7
D|-------------------|-------------------|-------------------------------------|
A|-------------------|-------------------|------7------------------------------|
F|-4----4-4-4-4-4-4--|-4--4-4-4-4-4-4-4--|------7------------------------------|
C|-5--5-5-5-5-5-5-5--|-5--5-5-5-5-5-5-5--|------9------------------------------|
G|-3--3-3-3-3-3-3-3--|-3--3-3-3-3-3-3-3--|-7-----------------------------------|
D|-------------------|-------------------|-------------------------------------|
  P.M.............................
  Spoken: it's truly one of a kind,..............................



  Phew,... alright guys dont 4get to rate this,oh if i get a high rate i'll do more
ok,and if you want the harmonics to this song email me im almost done with it,or if
you want any other songs ok. PEACE

       :::::::::: HAVE FUN & ENJOY :::::::::::
| /  slide up
| \  slide down
| h  hammer-on
| p  pull-off
| ~  vibrato
| +  harmonic
| x  Mute note
===============================================================================
Comments