Pod - Satellite Chords & Tabs

 

Satellite Chords & Tabs

Pod Chords & Tabs

Version: 3 Type: Tab 0 ratings
1 star 2 stars 3 stars 4 stars 5 stars
comments

Satellite Tab

   
P.O.D

[Riff 1] Intro
e----------------------------------------------------------
B----------------------------------------------------------
G---777-777-777-777-77-77--333-333-333-333-33-33-----------
D---777-777-777-777-77-77--333-333-333-333-33-33--555-555--
A---555-555-555-555-55-55--111-111-111-111-11-11--555-555--
E-------------------------------------------------333-333--
P.M.__|     __|     _|     __|     __|     _|     __|

e----------------------------------------------------------
B----------------------------------------------------------
G----------------------------------------------------------
D----555-555-55-55—-888-8888888----------------------------
A----555-555-55-55—-888-8888888----------------------------
E----333-333-33-33—-666-6666666----------------------------
P.M. __|     _|     __|

Intro (Part 2)

D5			G5		[Riff 2]		D5			G5
Satellite…………………………

[Riff 2]
e---14-14-17-17-17-17--------------------------------------
B----------------------14-14-14----------------------------

Verse 1 
Play Intro (Part 1) 3x

Bridge

D5						G5
As I look into the sky today

[Riff 2]
I can see you shining down on me
[ Tab from: http://www.guitartabs.cc/tabs/p/pod/satellite_tab_ver_3.html ]
D5 						G5
It brings a smile to my face again  s-s-s-satellite

Chorus

D5							G5			[Riff 2]
Satellite ……………………………

D5							G5			
Satellite ……………………………

Verse 2
Wait for guitar and then play [Riff 1] 2x

[Riff 3] 4x
e---------------------------------------------------------
B---------------------------------------------------------
G--7777-9999-10-10-10/12/14-14/15/14/15/14/15/14/15/14/15/
D--xxxx-xxxx-x--x—-x--x--x—-x—-x—-x—-x—-x—-x—-x—-x—-x—-x--
A--5555-7777-8--8—-8/10/12--12/13/12/13/12/13/12/13/12/13/
E---------------------------------------------------------

e----------------------------------------------------------
B----------------------------------------------------------
G-14/15/14/15/14/15----------------------------------------
D—-x—-x—-x—-x—-x-—x----------------------------------------
A—12/13/12/13/12/13----------------------------------------
E----------------------------------------------------------

Chorus 2x
D5							G5			[Riff 2]
Satellite ……………………………

D5							G5			
Satellite ……………………………

Play [Riff 1] 2x
if you have any request from any band e mail me at tribalwar21@aol.com

Comments