Pod - Rock The Party Chords & Tabs

 

Rock The Party Chords & Tabs

Pod Chords & Tabs

Version: 3 Type: Tab 0 ratings
1 star 2 stars 3 stars 4 stars 5 stars
comments

Rock The Party Tab

Song: Rock The Party (Off The Hook)
Artist:	P.O.D.
Album: The Fundamental Elements of Southtown
Tabbed by: simpleppl@hotmail.com

------------------
| / - slide up   |
| \ - slide down |
------------------

  Verse
E|--------------------------------------
B|--------------------------------------
G|--------------------------------------
D|-0-0-0-0-0-0-0-0---7-7-7---3-3-3-3-3--
A|-0-0-0-0-0-0-0-0---7-7-7---3-3-3-3-3--
D|-0-0-0-0-0-0-0-0---7-7-7---3-3-3-3-3--


  Tag
E|------------------
B|------------------
G|------------------
D|-0-0-0-0-0-0-0-0--
A|-0-0-0-0-0-0-0-0--
D|-0-0-0-0-0-0-0-0--

[ Tab from: http://www.guitartabs.cc/tabs/p/pod/rock_the_party_tab_ver_3.html ]
  Chorus
E|----------------------------------------------------------------------------------------
B|----------------------------------------------------------------------------------------
G|----------------------------------------------------------------------------------------
G|-7-7-7-7-7-7-7-7-7-7-7-7-7-7-7-7----14-14-14-14-14-14----10-10-10-10-10-10-10-10-10-10--
D|----------------------------------------------------------------------------------------
A|-5-5-5-5-5-5-5-5-5-5-5-5-5-5-5-5----12-12-12-12-12-12----8--8--8--8--8--8--8--8--8--8---
D|----------------------------------------------------------------------------------------


  Bridge
E|-------------------|-----------------
B|-------------------|-----------------
G|-------------------|-----------------
D|-0-0--0-0----------|-0-0--0-0--------
A|-0-0--0-0----------|-0-0--0-0--------
D|-0-0--0-0--2/12\0--|-0-0--0-0--2/12--
                    7x


Verse 4x
Tag
Verse 4x
Chorus 4x
Verse 6x
Chorus 4x
Bridge
Chorus 4x
Verse 2x
-pause-
Verse 2x
Chorus 4x
Comments