Pod - Rock The Party Chords & Tabs

 

Rock The Party Chords & Tabs

Pod Chords & Tabs

Version: 2 Type: Tab 0 ratings
1 star 2 stars 3 stars 4 stars 5 stars
comments

Rock The Party Tab

   
P.O.D., Rock The Party.
Tabbed by Brad, Syycco911@aol.com.
  


 BaNd:Payable On Death (P.O.D.)
 SoNg:Rock The Party (off The Hook)
 TuNiNg:D-tuning



E----------------------------|
B----------------------------|
G----------------------------|
D--0----2----3---------------| (echo/dist)
A--0----0----3---------------|
D--0---------3---------------|


[ Tab from: http://www.guitartabs.cc/tabs/p/pod/rock_the_party_tab_ver_2.html ]
E-----------------------------|
B-----------------------------|
G---7----14-----10------------|
D---X----X------X-------------| (1st chord play 8x,
A---5----12-----8-------------|  next 2 chords play 
D-----------------------------|  4x)


E--------------------|
B--------------------|
G--------------------|
D--3-0-3-0---0--3^---| (during turn table solo)
A--3-0-3-0---0--3^---|
D--3-0-3-0---0--3^---|

  (then it goes back around again)


 Here it is, Rock The Party. This one should be right. That late one really sukked. But for 2 better bands check out (hed)pe and Insolence (rap/metal).


 
:: Ultimate Guitar Archive :: 
http://www.ultimate-guitar.com 

Comments