Pod - Portrait Chords & Tabs

 

Portrait Chords & Tabs

Pod Chords & Tabs

Version: 1 Type: Tab 0 ratings
1 star 2 stars 3 stars 4 stars 5 stars
comments

Portrait Tab

   
"Portrait" bt P.O.D.
Tabbed By: Daniel Vaden

Drop C tuning

E/--5--3--1--0------1---------------
B/---33-33-33-333333-331--5--3------       Distortion
G/----------------------22-22-222222
C/----------------------------------       
G/---------------------------------- 
C/----------------------------------

E/---------------------------------------
B/---------------------------------------
G/---------------------------------------
C/--222-025--222-025--222-025--222-02---5      Heavy
G/--222-025--222-025--222-025--222-02---5      
C/--222-025--222-025--222-025--222-02---5      (INTRO)
____________________________________________________________

E/------------------------------------------   Heavy
B/------------------------------------------               
G/------------------------------------------
C/-222-025-222-025-222-025- skip down []
G/-222-025-222-025-222-025-           []
C/-222-025-222-025-222-025-           \/

E/----------------------------------------------------------
B/----------------------------------------------------------
G/----------------------------------------------------------
C/--12-12-12-0000-12-12-12-0000--12-12-12-0000-12-12-12-0000
G/--12-12-12-0000-12-12-12-0000--12-12-12-0000-12-12-12-0000
C/--12-12-12-0000-12-12-12-0000--12-12-12-0000-12-12-12-0000

                           2 times    (CHORUS)  or whatever
____________________________________________________________
          main                         lead
E/--------------------------------]-------------3---------
B/--------------------------------]--56-6-5-6-68-6-5-55656
G/--------------------------------]-----------------------
C/--2--------0--0------2----0--0--]--  (repeat lead)
G/--2--------0--0------2----0--0--]-----------------------
C/--2--------0--0------2----0--0--]-----------------------
                                   ( VERSE ) or whatever
The lead is a little rough to read, try to work with it.
___________________________________________________________

E/---------------------------------------
B/---------------------------------------
G/---------------------------------------
C/--222-025--222-025--222-025--222-02---5      Heavy
G/--222-025--222-025--222-025--222-02---5      
C/--222-025--222-025--222-025--222-02---5      
[ Tab from: http://www.guitartabs.cc/tabs/p/pod/portrait_tab.html ]
____________________________________________________________

 (Then play chorus or whatever.)              (CHORUS)

____________________________________________________________
 (Then play verse or whatever.)               (VERSE)

____________________________________________________________
    (main)
E/--------------------------------
B/--------------------------------
G/--------------------------------
C/--2--------0--0------2----0--0--
G/--2--------0--0------2----0--0--
C/--2--------0--0------2----0--0--   play until solo ends

    (solo)
E/---------------------------------------
B/--568-568-568-568-568-356-356-358-6\5-5
G/---------------------------------------
C/---------------------------------------
G/---------------------------------------
C/---------------------------------------

E/--56865---565---56865---565-------------------------------
B/-------868---8-------868---8--3-1-313131313131313131313/11
G/----------------------------------------------------------
C/----------------------------------------------------------
G/----------------------------------------------------------
C/----------------------------------------------------------

____________________________________________________________
  THEN PLAY VERSE 2 TIMES  (VERSE)

____________________________________________________________

          MAIN GUITAR CONTINUES VERSE UNTIL END

E/--10-10\8-6\7-7--54-53--1-0-1-0-1-3-0-1-------
B/-------------9-----6-------------------3--3541
G/----------------------------------------------
C/----------------------------------------------
G/----------------------------------------------
C/----------------------------------------------
        LEAD PLAYS THIS FOUR TIMES
E/----------------------------------------------
B/--3-----3-------------------------------------
G/---2-----2------------------------------------
C/----------4540--------------------------------
G/----------------------------------------------
C/----------------------------------------------
         LEAD PLAYS INTRO TO END
    MAIN GUITAR ENDING
E/----------------------------------------------
B/----------------------------------------------
G/----------------------------------------------
C/--22-0-25202----------------------------------
G/--22-0-25202----------------------------------
C/--22-0-25202----------------------------------


      My email is LVaden4Jesus@cs.com.
Comments