Pod - Ghetto Chords & Tabs

 

Ghetto Chords & Tabs

Pod Chords & Tabs

Version: 1 Type: Bass Tab 0 ratings
1 star 2 stars 3 stars 4 stars 5 stars
comments

Ghetto Bass Tab

   
Band: P.O.D.
Song: Ghetto
CD: Satellite
Tabbed by: Nick
Tuning: E,A,D,G


Chorus:
the song starts off with the chorus.
G/------------------------------------------------------------------------|
D/------------------------------------------------------------------------|
A/-7-7--7-7--7---7---5-5-5--5--5----3-3--3-3--3--3------------------------|
E/--------------------------------------------------3-3-3---3--3----3-----|


i guess this part is the verse but im not exactly sure what its called.
(we might never really agree...) and then again at (whether you think im so confused...)
G/------------------------------------------------------------------
D/------------------------------------------------------------------
A/-3--3-3--3-3--3--3-3-3-3----7-7--7-7--7-7--7--7-5--5-5--5-5--5----
E/------------------------------------------------------------------
[ Tab from: http://www.guitartabs.cc/tabs/p/pod/ghetto_btab.html ]
continued:
G/-----------------------------------------------------------------------|
D/-----------------------------------------------------------------------|
A/-3-3--3-3-3--3-3-3-3-----7-7--7-7-7--7-7-7--7-------7-----5------------|
E/-----------------------------------------------------------------3-----|


play this part when hes singin "living in this world of pain"
G/-----------------------------------|
D/-----------------------------------|
A/-3-3--3---3-3--3--3-3--3-3--3-3----|
E/-----------------------------------|


then play this when hes yellin " the world is a ghetto"
G/---------------------------------------------|
D/---------------------------------------------|repeat this a few times.
A/-7-7--7-7--7-7-7--7--7--7--5h7--7-7--7--7----|
E/---------------------------------------------|


play this during the guitar solo:
G/-----------------------------------------------------------------|
D/-----------------------------------------------------------------|
A/-3-3-3-3-3--3-3---3-3--3--3-3--3--7--7-7-7-7-7----7--7--7-7------|
E/-----------------------------------------------------------------|


thats about all , if theres any questions or problems or whatever
email me at pipe_dream_900@hotmail.com , thanx , enjoy!
Comments