Pod - Freestyle Chords & Tabs

 

Freestyle Chords & Tabs

Pod Chords & Tabs

Version: 2 Type: Bass Tab 0 ratings
1 star 2 stars 3 stars 4 stars 5 stars
comments

Freestyle Bass Tab

Song: Freestyle
Album: The Fundamental Elements of Southtown
Artist: POD
Tabbed By: Ry (dabassplaya@lycos.com) 

Here another much awaited POD tab!
Drop D, of course
It is a well-played song, and deserves an equally good tab, so email any corrections (sure its 99.9999999% right).

Verse:
G|-------------------------------------------------
D|-------------------------------------------------
A|-------------------------------------------------
D|---12-12-12-12-12-12-12-12--10-10-10-10--8-7-8-10

G|--------------------------------------------------------
D|--------------------------------------------------------
A|------------------------------------------------------8-
D|---12-12-12-12-12-12-12-12--10-10-10-10--8-7-8---10-----
[ Tab from: http://www.guitartabs.cc/tabs/p/pod/freestyle_btab_ver_2.html ]
G|------------------------------------------------------
D|------------------------------------------------------
A|--------------------------------------------------8-10
D|---12-12-12-12-12-12-12-12--10-10-10-10--8-7-8--------

G|-------------------------------------------------------
D|------------------------------------------------------8
A|-------------------------------------------------8-10--
D|---12-12-12-12-12-12-12-12--10-10-10-10--8-7-8---------

Bridge: (very fast)
G|------------
D|------------
A|------------  Repeated until bridge is over.
D|---0-12-0-12

Chorus:
G|---------------------
D|---------------------
A|---------------------
D|---5-5-5-5-5--0-0-0-3

Coda:
G|------------------
D|------------------
A|------------------
D|---5-5--0-0--8-8--

Notes: The verse parts get faster and faster every line you go down, so practice with the CD to get the speed right.
Ride On! 
Comments