Pod - Find My Way Chords & Tabs

 

Find My Way Chords & Tabs

Pod Chords & Tabs

Version: 4 Type: Tab 0 ratings
1 star 2 stars 3 stars 4 stars 5 stars
comments

Find My Way Tab

   
Find my Way-POD
GrieverZP
I don't know if this IS right but it sounds perfect! listen to the song for timing
but the tab has been written in specific strums.
D tuning

Lay Out
1  Intro
2  Verse
3  Chorus
4  Verse
5  Chorus
6  Add on
7  Bridge
8  Build up
9  Chorus
10 Add on
11 Outro
_______________________________________________________________________
Intro
D|----------------555555-33-88|   Played twice
a|55555/1-55-5/11-555555-33-88|
D|77777/3-77-7/33-555555-33-88|
g|77777/3-77-7/33-------------|
b|----------------------------|
e|----------------------------|

Verse
"I don't know how to let you go..."
D|-----------------------|
a|-----------------------|
d|--15---------15--------|
g|14---------14----------|
b|-------17-------17-(18)| (18) Optional
e|-----17----------------|

Played twice and then.....
"See through my eyes and you will know..."
D|------------------------------------|Played twice
a|------------------------------------|
d|------------------------------------|
g|------------------------------------|
b|8/10-8---8/10-8---8/10-8---8/10-8---|
e|------------------------------------|

Chorus-same as verse but with an extra part.
"I've still got a ways to go..."
D|----------------555555-33-88|   Played twice
a|55555/1-55-5/11-555555-33-88|
D|77777/3-77-7/33-555555-33-88|
g|77777/3-77-7/33-------------|
b|----------------------------|
e|----------------------------|

D|---------------------------------| Played twice
a|---------------------------------|
D|55555/3-55555/3-55555/3-3/6666-8-|
g|77777/5-77777/5-77777/5-5/8888-10|
b|77777/5-77777/5-77777/5-5/8888-10|
e|---------------------------------|

Verse
"If I could be everthing you want...."
D|-----------------------|   Played once before verse then twice
a|-----------------------|   through verse (3)
d|--15---------15--------|
g|14---------14----------|
b|-------17-------17-(18)|
e|-----17----------------|

"I need you more than I ever have..."
D|------------------------------------|Played twice
a|------------------------------------|
d|------------------------------------|
g|------------------------------------|
b|8/10-8---8/10-8---8/10-8---8/10-8---|
e|------------------------------------|

Chorus
"I've still got a ways to go..."
D|----------------555555-33-88|   Played twice
a|55555/1-55-5/11-555555-33-88|
D|77777/3-77-7/33-555555-33-88|
g|77777/3-77-7/33-------------|
b|----------------------------|
e|----------------------------|

D|---------------------------------|   Played twice
a|---------------------------------|
D|55555/3-55555/3-55555/3-3/6666-8-|
g|77777/5-77777/5-77777/5-5/8888-10|
b|77777/5-77777/5-77777/5-5/8888-10|
e|---------------------------------|

Add on
"I'll be there, I'll be there..."
D|7777-3-0-7/3/0/7/3-88888-3-555-8|   Played twice
a|7777-3-0-7/3/0/7/3-88888-3-555-8|
D|7777-3-0-7/3/0/7/3-88888-3-555-8|
g|--------------------------------|
b|--------------------------------|
e|--------------------------------|
[ Tab from: http://www.guitartabs.cc/tabs/p/pod/find_my_way_tab_ver_4.html ]
Bridge
D|8888-5-333-888--0/3/7/0/3/7-000-7-777|   Played twice
a|8888-5-333-888--0/3/7/0/3/7-000-7-777|
d|8888-5-333-888--0/3/7/0/3/7-000-7-777|
g|-------------------------------------|
b|-------------------------------------|
e|-------------------------------------|

Build up
D|---------------------------------|
a|---------------------------------|
D|55555/3-55555/3-55555/3-3/6666-8-|
g|77777/5-77777/5-77777/5-5/8888-10|
b|77777/5-77777/5-77777/5-5/8888-10|
e|---------------------------------|

Chorus
"I've still got a ways to go..."
D|----------------555555-33-88|   Played twice
a|55555/1-55-5/11-555555-33-88|
D|77777/3-77-7/33-555555-33-88|
g|77777/3-77-7/33-------------|
b|----------------------------|
e|----------------------------|

D|---------------------------------|   Played twice
a|---------------------------------|
D|55555/3-55555/3-55555/3-3/6666-8-|
g|77777/5-77777/5-77777/5-5/8888-10|
b|77777/5-77777/5-77777/5-5/8888-10|
e|---------------------------------|

Add on
"I'll be there, I'll be there..."
D|7777-3-0-7/3/0/7/3-88888-3-555-8|   Played twice
a|7777-3-0-7/3/0/7/3-88888-3-555-8|
D|7777-3-0-7/3/0/7/3-88888-3-555-8|
g|--------------------------------|
b|--------------------------------|
e|--------------------------------|


Outro
D|---------------------|
a|---------------------|
d|--15---------15------|
g|14---------14--------|
b|-------17-------17-18|
e|-----17--------------|
_______________________________________________________________________
Lyrics
I don't know how to let you go
I've given to you all of me
All that we'll ever be, we share the same
Heart and sole I wan't you to believe in me
See through my eyes and you will know
I'll take my chance that you will come home to me
Even if it takes some time for you to work it out I'll be there

I've still got a ways to go
So far away from home
Inside I always knew
I'de find my way to you

I've still got a ways to go (Find my way)
So far away from home (Find my way)
Inside I always knew (Find my way)
I'de find my way to you (Find my way)

If I could be everthing you want
If I could change everthing that I have done
Only you know everywhere i've gone
I want to prove I am worthy to be called yours
I need you more than I ever have 
And I don't want to say try and find me if you can
If I get lost along the way
Please don't forget me know that I'll be there

I've still got a ways to go
So far away from home
Inside I always knew
I'de find my way to you

I've still got a ways to go (Find my way)
So far away from home (Find my way)
Inside I always knew (Find my way)
I'de find my way to you (Find my way)

I'll be there, I'll be there
I'll be there, I'll be there

I'll be there, I'll be there
I'll be there, I'll be there

I've still got a ways to go
So far away from home
Inside I always knew
I'de find my way to you

I've still got a ways to go (Find my way)
So far away from home (Find my way)
Inside I always knew (Find my way)
I'de find my way to you (Find my way)

I'll be there, I'll be there
I'll be there, I'll be there

I'll be there, I'll be there
I'll be there, I'll be there

Find my way to you....
_______________________________________________________________________
That's it!
Tab by GrieverZP
Comments