Pod - Can You Feel It Chords & Tabs

 

Can You Feel It Chords & Tabs

Pod Chords & Tabs

Version: 1 Type: Bass Tab 0 ratings
1 star 2 stars 3 stars 4 stars 5 stars
comments

Can You Feel It Bass Tab

Band- Pod
Song- Can You Feel It

Intro      I          II
G -------------|--------------------------------|
D -------------|--------------------------------|
A -------------|--------------------------------|
E -------------|----4/7-4-5-2----4/7-4----------|
B -2r--2r-2222-|-2r-----------2r--------222222--|

Verse
G --------------------------------------------------------|
D --------------------------------------------------------|
A --------------------------------------------------------| 2x
E -------------------------53--------------------0235-----|
B -2-222-2-222-2-222-2-2222---2-222-2-222-2-2-222---------|

Intro II 2x 
[ Tab from: http://www.guitartabs.cc/tabs/p/pod/can_you_feel_it_btab.html ]
Pre chorus   I                    II 4x
G ---------------|----------------------------------|
D ---------------|----------------------------------|
A ---------------|----------------------------------|
E ---------------|----------------------------------|
B -2--32--32--32-|2-2222-2-2-2-2-32-2222-2-2-2-2-5--|

Chorus
G -----------------------------|
D -----------------------------|
A -----------------------------| 4x
E -----------------------------|
B -22-4h5-22-3h4-22-4h5-2-457--|

Pre chorus II 4x
Chorus 4x

Bridge
G ----|-------------------------------|
D ----|-------------------------------|
A ----|-------------------------------|
E ----|-------------------------------|
B -2r-|-2222-2222-2222-2222-2-2-22-2--|

G -------------------------|
D -------------------------|
A ----32--4-------32--4----| just pop a couple of notes just listen witch one
E --4----3--2---4----3--2--| 4x
B -2-----------2-----------|

G ---------------------------------|
D ---------------------------------|
A ---------------------------------|
E -------2-------1-------2---------| 2x
B -223322--223322--223322--22332---|

Verse 2x
Intro II 4x
Chorus 7x

End
G --------------|
D --------------|
A --------------|
E --------------|
B -2-225-223-2--|
Comments