Pod - Alive Chords & Tabs

 

Alive Chords & Tabs

Pod Chords & Tabs

Version: 9 Type: Tab 0 ratings
1 star 2 stars 3 stars 4 stars 5 stars
comments

Alive Tab

   
Artist: P.O.D.
Song: Alive (From the upcpoming album Satelite!)
Tabbed by: Ratmer (Ratmer@gmx.at)

tune guitar down one whole step, then "drop the D"
(low to high: C G C F A D)


VERSE

D|-----------------------------------------------------------------
A|-----------------------------------------------------------------
F|-----------------------------------------------------------------
C|--2-2-2--0--2--7-7-7-7--10-10-10-10-10-10-10-10--5-5--0----------
G|--2-2-2--0--2--7-7-7-7--10-10-10-10-10-10-10-10--5-5--0----------
C|--2-2-2--0--2--7-7-7-7--10-10-10-10-10-10-10-10--5-5--0----------


CHORUS
[ Tab from: http://www.guitartabs.cc/tabs/p/pod/alive_tab_ver_9.html ]
D|-----------------------------------------------------------------
A|-----------------------------------------------------------------
F|-----------------------------------------------------------------
C|--10--------2--------5--------0-0--5-------5--4--2--4--2---------
G|--10--------2--------5--------0-0--5----------------------5------
C|--10-(16x)--2-(16x)--5-(12x)--0-0--5-(8x)------------------------


INTERLUDE with chorus & delay

D|-----------14-15-14-15-14----------------------------------------
A|-----------------------------------------------------------------
F|-----------------------------------------------------------------
C|--2-5-4--------------------2-5-4----5-----------------------------
G|--------5------------------------5-------------------------------
C|-----------------------------------------------------------------


END

D|-----------------------------------------------------------------
A|-----------------------------------------------------------------
F|-----------------------------------------------------------------
C|--2-2-2-0-2--2-2-2-2-0-2-----------------------------------------
G|--2-2-2-0-2--2-2-2-2-0-2-----------------------------------------
C|--2-2-2-0-2--2-2-2-2-0-2-----------------------------------------


Order:

VERSE
CHORUS
VERSE
CHORUS
INTERLUDE
CHORUS
END

Represent I and I, Jah-Jah Warrior! 
Comments