Pod - Alive Chords & Tabs

 

Alive Chords & Tabs

Pod Chords & Tabs

Version: 8 Type: Tab 0 ratings
1 star 2 stars 3 stars 4 stars 5 stars
comments

Alive Tab

   
pod, alive.
 Tabbed by jordan, xambiguousx00@aol.com.
  
title: alive
band: pod
cd: satellite



                 intro/verse

e:----------------------------------------------------
b:----------------------------------------------------
g:----------------------------------------------------
d:-00030--5555-88888888--8888-3333--------------------
a:-00030--5555-88888888--8888-3333--------------------D:-00030--5555-88888888--8888-3333--------------------
x6 first; x4 second
                 
                 chorus:

e:----------------------------------------------------
b:----------------------------------------------------
g:----------------------------------------------------
d:-8888888888888888-0000000000000000-3333333333333333-
a:-8888888888888888-0000000000000000-3333333333333333-
d:-8888888888888888-0000000000000000-3333333333333333-

e:----------------------------------------------------
b:---------------6-5-3-5-3----------------------------
g:-------------------------5--------------------------
d:-0--33333333----------------------------------------
a:-0--33333333----------------------------------------
D:-0--33333333----------------------------------------
x2 at each chorus
[ Tab from: http://www.guitartabs.cc/tabs/p/pod/alive_tab_ver_8.html ]
e:-12-13-12-12-13-------------------------------------
b:----------------------------------------------------
g:----------------------------------------------------
d:----------------------------------------------------
a:----------------------------------------------------
D:----------------------------------------------------
 ^repeat fast thruout song,listen for parts Lets call it the High Notes       

------------12-13-12-12-13-12-13-12-12-13-12-13-12-12-
------------------------------------------------------
7--10--9--5-------------------------------------------
------------------------------------------------------
------------------------------------------------------
------------------------------------------------------
    
e:----------------------------------------------------
b:----------------------------------------------------
g:--7--10--9--5---------------------------------------
d:----------------------------------------------------
a:----------------------------------------------------
D:----------------------------------------------------

Bunch of squeaky and sharp sounds, then                                   

-------------12-13-12-12-13-12-13-12-12-13-12-13-12-12
------------------------------------------------------
-7--10--9--5------------------------------------------
------------------------------------------------------
------------------------------------------------------
------------------------------------------------------
    Now back to the chorus 3x With Repetetive  High Notes on a 2nd guitar     

------------------------------------------------------
------------------------------------------------------
------------------------------------------------------
---000-3-00000-3-0-------x4---------------------------
---000-3-00000-3-0------------------------------------
---000-3-00000-3-0------------------------------------
          Outro


if u have any comments email me at xambiguousx00@aol.com
 
:: Ultimate Guitar Archive :: 
http://www.ultimate-guitar.com 



Comments