Pod - Alive Chords & Tabs

 

Alive Chords & Tabs

Pod Chords & Tabs

Version: 7 Type: Tab 0 ratings
1 star 2 stars 3 stars 4 stars 5 stars
comments

Alive Tab

pod,alive.
 Tabbed by daniel archer,livesonwheels182@cs.com.
  
ok so here is the best tab on this site.listin to the song and then play thisif it does not sound right it's either you or your gutair.it's saposed to be on a 7 stringbut i made it to a 6 string. here it is.
V=vibrato
^=slide

intro
-------------------------------------
-------------------------------------
-------------------------------------
-------------------------------------
-55535-5555^8888-8888888---888^333---x6
-55535-3333^6666-6666666---666^111---
[ Tab from: http://www.guitartabs.cc/tabs/p/pod/alive_tab_ver_7.html ]
chorus
-------------------------------------
-----------------p--------------------
3----------------a--------------------
3-----7------3---u-----3--3-2-0-2-0---
1-----5------3---s--3--3------------3V
------5------1---e--3--1--------------

bridge
-------------------------------------
-------------------------------------
-------------------------------------
-0^3-2----12131213121312131213-------
------3------------------------------
-------------------------------------

that's it if you have any problems with it or if you have anoter perfect tab request E-MAIL ME AT livesonwheels182@cs.com
 
:: Ultimate Guitar Archive :: 
http://www.ultimate-guitar.com 



Comments