Pod - Alive Chords & Tabs

 

Alive Chords & Tabs

Pod Chords & Tabs

Version: 5 Type: Tab 0 ratings
1 star 2 stars 3 stars 4 stars 5 stars
comments

Alive Tab

#----------------------------------PLEASE NOTE--------------------------------#
#This file is the author's own work and represents their interpretation of the#
#song. You may only use this file for private study, scholarship, or research.#
#-----------------------------------------------------------------------------#
#-- File created with Instab - http://www.pconline.com/~smcarey/instab.html --#
#-----------------------------------------------------------------------------#

Author/Artist: POD
Title: Alive
Album: Satelitte
Transcribed by: Andrew
Email: Chocolatestarfish316@triad.rr.com

(good song)
[ Tab from: http://www.guitartabs.cc/tabs/p/pod/alive_tab_ver_5.html ]
------------------------------------------------------------------------------
------------------------------------------------------------------------------
------------------------------------------------------------------------------
-0-0-0-0-0-3-3-3-3-3/8-8-8-8-8--8-8-8-8---------------------------------------
-0-0-0-0-0-3-3-3-3-3/8-8-8-8-8--8-8-8-8---------------------------------------
-0-0-0-0-0-3-3-3-3-3/8-8-8-8-8--8-8-8-8---------------------------------------
 (note to drop d tune your guitar)                                            

------------------------------------------------------------------------------
------------------------------------------------------------------------------
------------------------------------------------------------------------------
-8-8-3-0-0-0-0-0--------------------------------------------------------------
-8-8-3-0-0-0-0-0--------------------------------------------------------------
-8-8-3-0-0-0-0-0--------------------------------------------------------------
 intro and verse                                                              

------------------------------------------------------------------------------
------------------------------------------------------------------------------
------------------------------------------------7-7-7-7-----------------------
-8-8-8-8-8-7-7-7-7-7-7-7-8-8-8-8-8-8-8-8--------7-7-7-7-----------------------
-8-8-8-8-8-5-5-5-5-5-5-5-8-8-8-8-8-8-8-8--------5-5-5-5---7h8-7-5-7-5-3-------
-8-8-8-8-8---------------8-8-8-8-8-8-8-8--------------------------------------
 I feel so alive for the very first time I cant deny you                      

Comments