Pod - Alive Full Version Chords & Tabs

 

Alive Full Version Chords & Tabs

Pod Chords & Tabs

Version: 1 Type: Tab 0 ratings
1 star 2 stars 3 stars 4 stars 5 stars
comments

Alive Full Version Tab

Title: Alive
Album: Satelitte
Transcribed by: Davin Blizard
Email: schiznatch@hotmail.com


This is my version. I couldn't find any tabs that were 
correct so I made my own. It should be pretty close.
The tuning is normal dropped D tuning: DADGBE


Intro/Verse

E--------------------------------------------------------
B--------------------------------------------------------
G--------------------------------------------------------
D--0-0-0-0-0--0-5>6-6>7-7>8-8-8-8-8-8--8-8-8-5-3-3-3-----
A--0-0-0-0-0--0-5>6-6>7-7>8-8-8-8-8-8--8-8-8-5-3-3-3-----
D--0-0-0-0-0--0-5>6-6>7-7>8-8-8-8-8-8--8-8-8-5-3-3-3-----
  Repeat this a couple of times


Chorus

E--------------------------------------------------------
B--------------------------------------------------------
G--3---7-------------------------------------------------
D--3---7---3-2-0---3---3-2-0-2-0-------------------------
A--1---5---3-2-0---3-------------3-----------------------
D----------3-2-0---3-------------------------------------
   ^   ^   ^       ^
  Strum each of the (^) several times
  Repeat then go back into verse


Solo
[ Tab from: http://www.guitartabs.cc/tabs/p/pod/alive_full_version_tab.html ]
E----------------------------------------12h13p12h13p12--
B--------------------------------------------------------
G--------------------------------------------------------
D--3-2-0-2-0---0---2h3p2----0---2h3p2--------------------
A------------3-----------3------------3------------------
D--------------------------------------------------------

E--------------3----------------12h13p12h13p12-----------
B--------------2-----------------------------------------
G--------------3-----------------------------------------
D--0---2h3p2-------0---2h3p2-----------------------------
A------------3---------------3---------------------------
D--------------------------------------------------------
  Right after this go back into chorus


Ending

E--------------------------------------------------------
B--------------------------------------------------------
G--------------------------------------------------------
D--0-0-0---0-0-2-3-2-0-----------------------------------
A--0-0-0---0-0-2-3-2-0-----------------------------------
D--0-0-0---0-0-2-3-2-0-----------------------------------


Order the song is played in:

Verse  x6
Chorus x2
Verse  x4
Chorus x2
Solo
Chorus x4
Ending x4
Comments