Poco - Call It Love Chords & Tabs

 

Poco Chords & Tabs

Version: 1 Type: Tab 0 ratings
1 star 2 stars 3 stars 4 stars 5 stars
comments

Call It Love Tab

This is 100% correct! The whole song is here!

Listen to the song for the strum patterns.


Intro/Rhythm Guitar 1
E||--12-12-12---9--9---7-7---9------------------------|
B||--10-10-10--10-10---9-9--10------------------------|
G||---9--9--9---9--9---9-9---9------------------------| X4
D||---------------------------------------------------|
A||---------------------------------------------------|
E||---------------------------------------------------|

E||--12-12-12--10-10---9--9--10-----------------------|
B||--10-10-10--10-10--10-10--10-----------------------|
G||---9--9--9---9--9---9--9---9-----------------------| X2
D||---------------------------------------------------|
A||---------------------------------------------------|
E||---------------------------------------------------|

E||--12-12-12---9--9---7-7---9------------------------|
B||--10-10-10--10-10---9-9--10------------------------|
G||---9--9--9---9--9---9-9---9------------------------| X2
D||---------------------------------------------------|
A||---------------------------------------------------|
E||---------------------------------------------------|

(Intro Continues Playing Through Out The Song, Except For The Bridge)

Verse/Rhythm Guitar 2
E||-------------------------------------------------------|
B||-------------------------------------------------------|
G||----------------7--------------------------------------|
D||--7------4------7-X16--7-------------------------------| X2
A||--7-X16--4-X16--5------7-X16---------------------------|
E||--5------2-------------5-------------------------------|
[ Tab from: http://www.guitartabs.cc/tabs/p/poco/call_it_love_tab.html ]
Bridge 1
E||-------------------------------------------------------|
B||-------------------------------------------------------|
G||--1-------7-7-7-7---------1-------7---9----------------|
D||--2---4---7-7-7-7-X2-----2---4---7---9----------------|
A||--2---4---5-5-5-5---------2---4---5---7----------------|
E||------2-----------------------2------------------------|

E||-------------------------------------------------------|
B||-------------------------------------------------------|
G||-------------------------------------------------------|
D||---7------4--------------------------------------------|
A||---7-X16--4-X16----------------------------------------|
E||---5------2--------------------------------------------|

(Play Verse Once)

Bridge 2
E||-------------------------------------------------------|
B||-------------------------------------------------------|
G||--1-------7-7-7-7---------1-------7---7----------------|
D||--2---4---7-7-7-7-X2-----2---4---7---7---------------|
A||--2---4---5-5-5-5---------2---4---5---5---------------|
E||------2-----------------------2------------------------|

Solo
E||-------------------------------------------------------|
B||--s10--------------------------------------------------|
G||-------9-9---------------------------------------------|
D||-----------11-b11-11-9--------11-b11-11-9--------------|
A||-----------------------12-9-9-------------12-9-9-------|
E||-------------------------------------------------------|

E||---------------------9-9-12-12-17-17-17-17-------------|
B||---------------10-10-----------------------------------|
G||-------------------------------------------------------|
D||--11-b11-11--------------------------------------------|
A||------------12-----------------------------------------|
E||-------------------------------------------------------|

(Bridge 1)

E||-------------------------------------------------------|
B||-------------------------------------------------------|
G||-------------------------------------------------------|
D||---7---------------------------------------------------|
A||---7-X16-----------------------------------------------|
E||---5---------------------------------------------------|

(Intro)

(Verse) X2

(Intro Until End Of Song)

Comments