Play Life - Crash Chords & Tabs

 

Crash Chords & Tabs

Play Life Chords & Tabs

Version: 2 Type: Tab 0 ratings
1 star 2 stars 3 stars 4 stars 5 stars
comments

Crash Tab

   
Playlife, crash.
Tabbed by d.c., cupolove@hotmail.com.
  
Artist:  Playlife
Song:    Crash
Written by: Darien Cruz of Playlife
Chords:

D1      e--0--
        b--2--
        g--2--
        d--0--
        a--x--
        e--x--

D2      e--0--
        b--3--
        g--2--
        d--0--
        a--x-- 
        e--x--

Amaj    e--0--
        b--5--
        g--6--
        d--7--
        a--0--
        e--x--

Bmin    e--0--
        b--3--
        g--4--
        d--4--
        a--2--
        e--x--

D3      e--0--
        b--0--
        g--7--
        d--7--
        a--5--
        e--x--

E       e--0--
        b--0--
        g--9--
        d--9--
        a--7--
        e--0--

F#      e--0-- 
        b--2--
        g--3--
        d--4--
        a--4--
        e--x--
D1    D2        Amaj
      All of my worlds coming 
D1    D2        Amaj
      Crashing down so fast
Bmin   
Shoulda thought things out now i
D3
Live with out

    We don't walk so proud                        
    We don't talk so loud
    When we hear them say
    Not today
[ Tab from: http://www.guitartabs.cc/tabs/p/play_life/crash_tab_ver_2.html ]
    It's the ones we love we must
    Shun away for the
    simple minds we please
    everyday

chorus-

E                                          F# A
When all i want is to lose myself in you


Crash 
Bass Line
1st run

   D1   D2     Amaj         D1   D2     Amaj 

g---------------------------------------------------  
d---------------------------------------------------
a--555--4h5-4--0-0----------555--4h5-4--0-0---------
e-------------------2----5------------------2----5--

repeat 1st run

2nd run
    Bmin          
 
g-------4----------------------777-77------
d-----4------------------------------------
a--2-------0h2-2-2-----5-5-5-5-------------
e------------------------------------------

Chorus 
       E                        F#        Amaj 
g------------9---9-7-----------------------------5h7-
d---------9----------9-7--------------2------5h7-----
a-----7-------------------7--------4------0----------
e--0----------------------------2--------------------

 
:: Ultimate Guitar Archive :: 
http://www.ultimate-guitar.com 

Comments