Plant Robert - Song To The Siren Chords & Tabs

 

Song To The Siren Chords & Tabs

Plant Robert Chords & Tabs

Version: 1 Type: Tab 0 ratings
1 star 2 stars 3 stars 4 stars 5 stars
comments

Song To The Siren Tab

#-----------------------------------------------------------------------------#
#-- File created with Instab - http://www.pconline.com/~smcarey/instab.html --#
#-----------------------------------------------------------------------------#

Author/Artist: Robert Plant
Title: Song To The Siren
Album: Dreamland
Transcribed by: Rolf
Email: Ruts011@hotmail.com

This is a beautiful solo of this song. It`s my first tab so any
corrections are welcome. Porl uses many slides here and he also 
uses some echo. That`s why it is difficult to understand.
Listen to the tape.

------------------------------------------------------------------------------
------------------------------------------------------------------------------
------------------------------------------------------------------------------
-11-11-11--11-11--14-14--14-11-11\9-9-9--7\4---9/11-11-11-11-9-7--------------
------------------------------------------------------------------------------
------------------------------------------------------------------------------
                                                                              
[ Tab from: http://www.guitartabs.cc/tabs/p/plant_robert/song_to_the_siren_tab.html ]
------------------------------------------------------------------------------
------------------------------------------------------------------------------
------------------------------------------------------------------------------
-11-11-11-11-11--14-14-14--11-11--9-9-9-9-9/7--4--11-11---11-9h11-9-7---------
------------------------------------------------------------------------------
------------------------------------------------------------------------------
                                                                              

------------------------------------------------------------------------------
------------------------------------------------------------------------------
-6-7-9--6-7-9--9/13-13-13-13-13-13--11-11--7-7---9-6h7-6--6-6-6-7--6----------
------------------------------------------------------------------------------
------------------------------------------------------------------------------
------------------------------------------------------------------------------
                                                                              

------------------------------------------------------------------------------
------------------------------------------------------------------------------
-6-7-9--6-7-9-9/13--13-13-13-14-13--13--11-11\7-7-7\2-2-2-2--4/6--6-4h6-4-2---
------------------------------------------------------------------------------
------------------------------------------------------------------------------
------------------------------------------------------------------------------
                                                                              

------------------------------------------------------------------------------
------------------------------------------------------------------------------
------------------------------------------------------------------------------
--4-2-2/7---------------------------------------------------------------------
------------------------------------------------------------------------------
------------------------------------------------------------------------------
                                                                              

Comments