Plant Robert - Song To The Siren Solo Chords & Tabs

 

Song To The Siren Solo Chords & Tabs

Plant Robert Chords & Tabs

Version: 1 Type: Tab 0 ratings
1 star 2 stars 3 stars 4 stars 5 stars
comments

Song To The Siren Solo Tab

Robert Plant
album "Dreamland"

"Song To The Siren"


This is a beautiful solo of this song. It`s my first tab so any
corrections are welcome. Porl uses many slides here and he also 
uses some echo. That`s why it is difficult to understand.
Listen to the tape.

------------------------------------------------------------------------------------------
------------------------------------------------------------------------------------------
------------------------------------------------------------------------------------------
--11-11-11--11-11--14-14--14-11-119--9-9--74--9/11--11--11--11--9--7--------------------
------------------------------------------------------------------------------------------
------------------------------------------------------------------------------------------

------------------------------------------------------------------------------------------
------------------------------------------------------------------------------------------
------------------------------------------------------------------------------------------
-11--11--11--11--11---14--14--14---11--11---9--9--9--9--9/7--4--11--11---9h11--9--7-------
------------------------------------------------------------------------------------------
------------------------------------------------------------------------------------------
[ Tab from: http://www.guitartabs.cc/tabs/p/plant_robert/song_to_the_siren_solo_tab.html ]
------------------------------------------------------------------------------------------
------------------------------------------------------------------------------------------
-6--7--9---6--7--9--9/13--13--13--13--13--13--11--11---7--7---9--6h7--6---6--6--6--7---6--
------------------------------------------------------------------------------------------
------------------------------------------------------------------------------------------
------------------------------------------------------------------------------------------

------------------------------------------------------------------------------------------
------------------------------------------------------------------------------------------
-6--7--9---6--7--9--9/13--13-13-13--14--13---13--11--117--7--72--2--2--2--4/6--6--4h6---
------------------------------------------------------------------------------------------
------------------------------------------------------------------------------------------
------------------------------------------------------------------------------------------

------------------------------------------------------------------------------------------
------------------------------------------------------------------------------------------
--4--2------------------------------------------------------------------------------------
----------4--2--2/7-----------------------------------------------------------------------
------------------------------------------------------------------------------------------
------------------------------------------------------------------------------------------

tabbed by Rolf

rolf.saarna@email.ee
Comments