Plant Robert - All The Kings Horses Chords & Tabs

 

All The Kings Horses Chords & Tabs

Plant Robert Chords & Tabs

Version: 2 Type: Tab 1 rating
1 star 2 stars 3 stars 4 stars 5 stars
comments

All The Kings Horses Tab

   
##################################################################################
# This file is the author's own work and represents their interpretation of the  #
# song. You may only use this file for private study, scholarship, or research.  #
##################################################################################

All The Kings Horses
By Robert Plant from The Mighty Rearranger
Transcribed by- Lisa Shelton

Funny how not many posts for dear Robert with all of the albums he has out. He is one of my favorites.  This is my first submission, hopefully there are more to come, but that depends on the little reviewers that decide what gets posted….. If you find any errors, please let me know, but I believe this to be correct. Skin likes to use little scale pull offs, they are not that hard to figure out, but they can be tedious since they are so quick, but you do not have to do them for the song to work, it depends on you. One tip would be to mute the high e string when you are strumming the chords, the high string makes it sound like there is too much there. Less is more with this song. Enjoy! 


INTRO: - C/ / / / G/ / / / F/ / / /C/ / / /


G             F       G            F
- chorus -  All the Kings horses, all the kings men



E---------------------------------------------------------------
B-------------1 -  3  -  5 -  3  - 1-----3-let------------------
G-0--2---------------------------------------2-ring-------------
D--------------------------------------------------3-thru-------
A--------------do not play with this string---------------------
E-----------------this string either----------------------------


 
E---------------------------------------------------------------
B-------------1 -  3  -  5 - 3  - 1-------3-let-----------------
G-0--2---------------------------------------2-ring-------------
D--------------------------------------------------3-thru-------
A------------------or this string-------------------------------
E------------------- or this one--------------------------------



[ Tab from: http://www.guitartabs.cc/tabs/p/plant_robert/all_the_kings_horses_tab_ver_2.html ]
E---------------------------------------------------------------
B-------------1  -  3  -  5  - 3  -  1-----3-let----------------
G-0--2---------------------------------------2-ring-------------
D--------------------------------------------------3-thru-------
A--------------this one is not needed either--------------------
E---------------------neither is this---------------------------



Solo:

E----------------------|---------------------------------------|------------------------------------------------------------
B----------------------|-----------0~3--1----------------------|------------------0-1-1-3-1-3~5-5--3-5-3-1-3-1--------------
G-0-0-0----------0-----|---0~2-------------------0-------------|-0-0-0------------------------------------------------------
D-----------3-2-3------|---0~2------------0-2------0h2---------|----------3-2-3---------------------------------------0h2---
A----------------------|-------------------------------3-------|----------------------------------------------------------3-
E----------------------|---------------------------------------|------------------------------------------------------------


Bridge

G                       F              G                     F
Ahh, aaaahh, aaaaa ------ Ahh, aaaahh, aaaaa



E---------------------------------------------------------------
B-------------1 - 3  -  5  - 3  - 1--------3-let----------------
G-0--2---------------------------------------2-ring-------------
D--------------------------------------------------3-thru-------
A-------------------this lonely string--------------------------
E-------------that looks like it wants to be played-------------


E---------------------------------------------------------------
B-------------1  -  3   -  5  - 3  - 1-----3-let----------------
G-0--2---------------------------------------2-ring-------------
D--------------------------------------------------3-thru-------
A----------but has to look like it belongs----------------------
E------------------in the song….--------------------------------




E---------------------------------------------------------------
B-------------1  - 3  -  5  - 3  - 1------3-let-----------------
G-0--2---------------------------------------2-ring-------------
D--------------------------------------------------3-thru-------
A------but it still dosent need to be played--------------------
E------poor string, now the song is almost over-----------------



Fade to end C/ / / /G/ / / /F/ / / /C

Comments